Song name
# A B C D E F G H I J K L M N O P Q R S T U V W X Y Z

Dinosaur Jr - Dont Pretend You Didnt Know tab

Dinosaur Jr.
"Don't Pretend You Didn't Know"
From the album: I Bet On Sky, (2012)
Songwriter: J Mascis

These are just the chords.. no strum patterns or solo parts are notated.

Capo: 9th Fret

Verse:("Waiting all the time...")

E-0---0-------2---------------------|
B-1---3---1---3---------------------|
G-2---0---0---2---------------------|
D-2---x---2---0---------------------|
A-0---2---3-------------------------|
E-----------------------------------|

Chorus:("Calling all the time...")

E--0------------0-------------------|
B--0---0--------0---0---------------|
G--0---0--------0---0---0---0-------|
D--2---2--------2---2---0---0-------|
A--2---3--------2---3---2---X-------|
E--0------------0-------3---2-------|
Tap to rate this tab
# A B C D E F G H I J K L M N O P Q R S T U V W X Y Z