Song name
# A B C D E F G H I J K L M N O P Q R S T U V W X Y Z

Dinosaur Jr - The Post tab

-------------------------------------------------------------------------------
                             THE POST - Dinosaur Jr.
-------------------------------------------------------------------------------
Tabbed by: fetusrobot
E-mail: fetusrobot@gmail.com

Tuning: EADGBe

hi, so i checked out a couple tabs around, and i thought they were reasonably accurate 
but were maybe overcomplicating things idk so i happened to find an easier way to play 
the song. this version is all power chords and lead fills so yeah. hope u like it :)

--------------------------------------VERSE-------------------------------------
the verse part is really simple. just keep a feedback going along with the bass part and 
rush out like 3 chords by the end so yeah ere we go

Beat: --------- (9 spaces)

e|---------------------------------------------------------------------------|
B|---------------------------------------------------------------------------|
G|------------------------------------------------7--7--7--6--6--6--2~~~~~~~~|
D|------------------------------------------------7--7--7--6--6--6--2~~~~~~~~|
A|------------------------------------------------5--5--5--4--4--4--0~~~~~~~~|
E|-5--------7--------0~~~~~~~~~~~~~~~~~~~~~~~~~~~----------------------------|
                       eyed it dried it whatever

the power chords are like 3 per beat i think but it's kinda hard to tab so idfk figure 
it out yourselves im past carin' lol

yeah like i said this is the simplest riff you could possibly play so let's move on

------------------------------------CHORUS--------------------------------------
the chorus' also pretty simple, you just gotta work on the lead fill/chords transition 
that is a bit tricky at first. personally i like to improvise the leads around these 
examples, to keep it interesting, so play with octaves and like pull-offs/hammer-ons and such.

Beat: ---- (4 spaces)

e|-------------------------------------------------5-7-5-7/9-7---------------|
B|---------------------------------------------------------------------------|
G|-7-------7-------4-------4-------2-------2---2--------------x~-------------|
D|-7-------7-------4-------4-------2-------2---2--------------x~-------------|
A|-5-------5-------2-------2-------0-------0---0--------------x~-------------|
E|---------------------------------------------------------------------------|

e|---------------------------------------------------------------------------|
B|---------------------------------------------------------------------------|
G|-7-------7-------4-------4-------2-------2---2---------------x~------------|
D|-7-------7-------4-------4-------2-------2---2---0-020/4-2-0-x~------------|
A|-5-------5-------2-------2-------0-------0---0----(h-p)------x~------------|
E|---------------------------------------------------------------------------|

e|---------------------------------------------------------------------------|
B|---------------------------------------------------------------------------|
G|-7-------7-------4-------4-------2-------2---2---2-4-2-4/6-4x~-------------|
D|-7-------7-------4-------4-------2-------2---2--------------x~-------------|
A|-5-------5-------2-------2-------0-------0---0--------------x~-------------|
E|---------------------------------------------------------------------------|

e|-------------------------------------------------5-7-5-7/9-7---------------|
B|---------------------------------------------------------------------------|
G|-7-------7-------4-------4-------2-------2---2-----------------------------|
D|-7-------7-------4-------4-------2-------2---2---2---0---------------------|
A|-5-------5-------2-------2-------0-------0---0-----------4-2-0-------------|
E|---------------------------------------------------------------------------|

i like playing it so that there's a kind of faint "chckch" sound between the chords, 
like sliding my pick on the muted strings between transitions? yeah.

------------------------------------BRIDGE--------------------------------------
the bridge is the most intense part of the song and demands to be played as such. if you 
play with more than one overdrive/fuzz pedal on your pedalboard, this is the time to 
kick it in.

Beat: ---- (4 spaces)

e|---------------------------------------------------------------------------|
B|-----------------------------------------------------020-------------------|
G|---------2b0-------------------------2b0-5---4-4-020(h-p)------------------|
D|-5---5-------3---3-3-x-3-3-x-5---5-------5---4-4(h-p)----------------------|
A|-5---5-------3---3-3-x-3-3-x-5---5-------3---2-2---------------------------|
E|-3---3-------1---0-1-x-1-1-x-3---3-----------------------------------------|
                        (p.m)

e|---------------------------------------------------------------------------|
B|---------------------------------------------------------------------------|
G|---------2b0-------------------------2b0-5---4-4---------------------------|
D|-5---5-------3---3-3-x-3-3-x-5---5-------5---4-4---------------------------|
A|-5---5-------3---3-3-x-3-3-x-5---5-------3---2-2---------------------------|
E|-3---3-------1---0-1-x-1-1-x-3---3-----------------------------------------|
                        (p.m)

after that comes the solo, which i am not pro enough to tab lmfao also like solos aren't 
written on stone, they're crafted then and there, so like, get yourselves workin' i guess.

--------------------------------ay tha'ss it thanks-----------------------------

the song structure goes:
VERSE, VERSE, VERSE, CHORUS, BRIDGE, SOLO, VERSE, VERSE, VERSE, CHORUS, CHORUS, and 
outro, that is just a let ring D5 so yeah
thanks don't forget to comment rate and subscribe.
Tap to rate this tab
# A B C D E F G H I J K L M N O P Q R S T U V W X Y Z