Song name
# A B C D E F G H I J K L M N O P Q R S T U V W X Y Z

Dinosaur Jr - Feel The Pain tab

STANDARD TUNING
CAPO 3RD FRET

Chords Used:
Dm: X57765
G : 355433
Em: X79987
C : X35553
Am: 577555

Fig 1
---------------------------------------------|
-----8---8---8---8---------------------------|
---9---9---9---9----10-10-10-10-10-10-10-10--|
-10-----------------10-10-10-10-10-10-10-10--|
--------------------8--8--8--8--8--8--8--8---|
---------------------------------------------|

Fig 2
-|-----------------------------------------------------------------------------|
-|-----------------------------------------------------------------------------|
-|-----------------------12-14-14-12-14-12-10----------------------------------|
-|-12-14-14-12-14-12-----3--3--3--3--3--3--3-----------------------------------|
-|-3--3--3--3--3--3------------------------------------------------------------|
-|-----------------------------------------------------------------------------|


-|------------------------------------12---12---------------------------------|
-|---------------------12-14-14-12----15b--15b--------------------------------|
-|-12-14-14-12-14-12---3--3--3--3---------------------------------------------|
-|-3--3--3--3--3--3-----------------------------------------------------------|
-|----------------------------------------------------------------------------|
-|----------------------------------------------------------------------------|
Play Fig 1 riff a few times for intro.

Verse: (Repeat fig 1 a few times)

I feel the pain of everyone
And Then I feel nothing

Play Fig 2 twice

Chorus 1:
Dm          G
Is it up to me

Em                C Am
You won't wait to see

G              Em
Screwed us yet again

G                     C Am
About as close as you get


Chorus 2: (Same chords as Chorus 1)

Is it up to me
You won't wait to see
Screwed us yet again
Bout as close as you've been
(Start lead here)
Hey now take it back
Get off the attack
Trading all you see
Just trying to keep it clean

Lead over last Chorus
e|---------------------------------------------------------------------|
b|-------------------------------------6-5-----6-/8~-------------------|
g|------5-7b-rb7~--------------------------7-5-------------------------|
d|--5-7----------------------------------------------------------------|
a|---------------------------------------------------------------------|
E|---------------------------------------------------------------------|

e|--------------------------------------------------------------------------|
b|--10-10-8------------------------------------------------8-w/vibrato-bar--|
g|----------9-7~---------/9~------------9-9-9-97----------------------------|
d|-------------------------------------------------9-7-5--------------------|
a|--------------------------------------------------------------------------|
E|--------------------------------------------------------------------------|

GUITAR SOLO
e-------------------------------------------------------------|
b-----------13-15-13-15-13-15/17-17-18-17-18/20-18-17H18P17---|
g----14-14----------------------------------------------------|
d-------------------------------------------------------------|
a-------------------------------------------------------------|
E-------------------------------------------------------------|

e--------------------------------------------------------------|
b--15-17-15-13-----13------------------------------------------|
g---------------14----14-12-12b-rb12~----------12--------------|
d--------------------------------------------------------------|
a--------------------------------------------------------------|
E--------------------------------------------------------------|

e-----------------------------------------------------------------|
b-------------------------------------------13--------------------|
g----5-7-5h7p5-7-7/9-9-10 9h10p9----9-10/14----14-12b-rb12--------|
d--7-----------------------------12-------------------------14-12-|
a-----------------------------------------------------------------|
E-----------------------------------------------------------------|

e-------------------------------------------------------------|
b--/18--17-17--17---------------------------------------------|
g-------------------------17-19-17-19-17-16-17-16~------------|
d------------------/19-------------------------------17-/19---|
a-------------------------------------------------------------|
E-------------------------------------------------------------|

e------------------------------------------------------------------17----17-|
b---------------------------------------17---------17--18-17-18-20----20----|
g---------16----16-17-17----17-19-17-19----19-(19)--------------------------|
d--17--19----19-------------------------------------------------------------|
a---------------------------------------------------------------------------|
E---------------------------------------------------------------------------|

e-20p17-20p17-20p17-20p17-20p17-20p17-20p17-20p17---------------2220-20------|
b--------------------------------------------------20b-20-17-----------------|
g------------------------------------------------------------19--------------|
d----------------------------------------------------------------------------|
a----------------------------------------------------------------------------|
E----------------------------------------------------------------------------|

I take no credit, somebody on jtabs tabbed this one
tbarrettl@gmail.com
Tap to rate this tab
 
# A B C D E F G H I J K L M N O P Q R S T U V W X Y Z