Song name
# A B C D E F G H I J K L M N O P Q R S T U V W X Y Z

Dinosaur Jr - Freak Scene tab

#--------------------- PLEASE NOTE ---------------------#
# This file is the author's own work and represents their
# interpretation of the song. You may only use this file
# for private study, scholarship, or research.
# freesofree.net / freakscene.net / dinosaurjr.com
#-------------------------------------------------------#

Author/Artist: Dinosaur Jr
Title: Freak Scene
Album: Bug
Transcribed by: Sam Duckitt and fuzz


Verse
-5-5--5-5-5-0-0-0-0-0-0-0---0-0--0-0-0--0-0-0-0--0-0-0-|
-3-3--3-3-3-0-0-0-0-0-0-0--/5-5--5-5-5--5-5-5-7--5-5-5-|
-2-2--2-2-2-1-1-1/2\1-1-1--/6-6--6-6-6--6-6-6-6--6-6-6-| X5
------------2-2-2/4\2-2-2--/7-7--7-7-7--7-7-7-7--7-7-7-|
------------2-2-2/4\2-2-2------------------------------|
------------0-0-0-0-0-0-0------------------------------|

Can't it Just Be Cool....
-222-------222-|
-333-------333-| (strum really fast and hold)
-222-------222-|
---------------|
---------------|
---------------|

-----------------------0000000000000000000---|
-----------------------0000000000000000000---|
-----------------------6666666666666666666---| X 4
-9999-9999-9999-9999---7777777777777777777---|
-7797-7797-7797-7797---0000000000000000000---|
-0000-0000-0000-0000-------------------------|

Seen Enough To Eye You...
-000-0-00-000-00-00-0-00---000-0-00-0-0-00-0-00-|
-000-0-00-000-00-00-0-00---000-0-00-0-0-00-0-00-|
-111-1-11-111-11-11-1-11--/666---66-6---66---66-| X4
-222---22-222----22---22--/777---77-7---77---77-|
-222---22-222----22---22--/777---77-7---77---77-|
-000---00-000----00---00------------------------|

Chord Into Verse
---
---
---
-4- X 16 or sumthing
-4-
-2-

Solo #1 (My version)
----------------------------------------------------------------|
-7b-7b-7br-----------10-10-8-8-7-7--------------------7h8-7-----|
-9b-9b-9br-7h9~~~7h9---------------999-7--7-9-9-9b(11)------7-7-|
----------------------------------------------------------------|
----------------------------------------------------------------|
----------------------------------------------------------------|

-----------------12b-12b-12b-12b-12b-12b~~---------------------|
-----------------15b-15b-15b-15b-15b-15b~~---------------------|
-----7-99-9-9-9------------------------------------------------|
-7h9--------------------------------------12-12-12-12-11-11-11-|
---------------------------------------------------------------|
---------------------------------------------------------------|

--------------------------------------------------------------------|
--------------------------------------------------------------------|
-------------------------------------------------6h7-9b-9b-9b-9b-9b-|
--------------------------------------11-12-12~~~-------------------|
-12--12-12-12-12-12-10-10-9---9-10-12-------------------------------|
--------------------------------------------------------------------|

----------10----/12---15-15-15---------------------------------------|
-7-8--7h8---7h8----10---------------------------------8-8p7-8p7-8-10-|
----------------------------------7h9-7--9b(11)-9--7h9---------------|
-------------------------------7h9-----------------------------------|
---------------------------------------------------------------------|
---------------------------------------------------------------------|

-7-10-12b-12b--10-------------------------------------------------14b-|
------------------------------------------------------------------17b-|
------------------14-14-14-14-12-11-12p11-12p11-----------------------|
----------------------------------------------------12----------------|
-----------------------------------------------12h14--14-12-10-9------|
----------------------------------------------------------------10----|

Solo #1 (Fuzz)
-----------------------------------------------------------------|
-7b-7b-7br-----------10-10-10-8-7-7-------------------7-7h8-7----|
-9b-9b-9br-7-9~~~9b-----------------7--7-9-9-9b(11)----------7-7-|
----------------------------------9--9---------------------------|
-----------------------------------------------------------------|
-----------------------------------------------------------------|


-----------------12b-12b-12b-12b-12b-12b~~-----------------------|
-----------------15b-15b-15b-15b-15b-15b~~-----------------------|
-----7-9-7-9-9-9-9-----------------------------6-7-7-6-6/2-2-2---|
-7h9-------------------------------------------7-7-7-------------|
-----------------------------------------------------------------|
-----------------------------------------------------------------|


-------------------------------------------------------10-----10/12-12/15-15-15-|
-------0-------------------------7b-7b-7b------7-8-8-8----8-8-------------------|
-2-0---0--0-0h2-0h2-0h2-0h/6h7-7-9b-9b-9b--9-7----------------------------------|
-----4---4----------------------------------------------------------------------|
--------------------------------------------------------------------------------|
--------------------------------------------------------------------------------|


--------------------------------------------------------------------|
-------------------------8-8p7-8p7-8-10-10-12-15-15-17b-17b---------|
-----7h9-7-7-9b-9-9-9-9b--------------------------------------------|
-7-9----------------------------------------------------------------|
--------------------------------------------------------------------|
--------------------------------------------------------------------|

-------------------------------------17b----------------------------|
--10--8--10-10-8-10-8-7-8p7-8/15-15---------------------------------|
--------------------------------------------------------------------|
--------------------------------------------------------------------|
--------------------------------------------------------------------|
--------------------------------------------------------------------|

Solo #2
-------------------------------------------------------12b-12-----12-----12--|
-10b-10-10-8-7-10-10-10-8-7-8-8-8--8-8-7-8-10-12-12-15-15b----15b----15b-----|
-----------------------------------------------------------------------------|
-----------------------------------------------------------------------------|
-----------------------------------------------------------------------------|
-----------------------------------------------------------------------------|

-15-15-15--14---------12-----12----------------------------------------|
--x--x-x----x--15b-15----15b---------0---0-----------------------------|
-12-12-12--11--------------------2-2---2-0----0-------------------0----|
--------------------------------------------4---2-0-------------2------|
----------------------------------------------------4-2-0-0-0-0--------|
-----------------------------------------------------------------------|


------------------------------------------------------------------------|
---0---0-------------------------------------------------------3-5-5-3--|
-2b---2-0----0-----------------------------------------4-4-4-4----------|
----------4---2-0----------------0--------------0-42-0------------------|
------------------4-2-0--0-0-0-2---0-0-0-0-0-02-------------------------|
------------------------------------------------------------------------|

--------------------------------------------------------------------|
-5/-7-7-7-8-8-8-8-8-8/12-12-12-12-12-12-10-10-10-10-8-7-------------|
--------------------------------------------------------------------|
--------------------------------------------------------------------|
--------------------------------------------------------------------|
--------------------------------------------------------------------|

--------------------------------------7h10p7------------------------|
-10-10-10-10-8-7-8-8-8-8-7-8-10-10-10--------10---------------------|
--------------------------------------------------------------------|
--------------------------------------------------------------------|
--------------------------------------------------------------------|
--------------------------------------------------------------------|


-------------------------------------------------------------7-----|
-10-10-10-10-8-7--10-10-10-10-8-7-8-8-8-8p7-8-10-10-10----10b-10b--|
-------------------------------------------------------------------|
-------------------------------------------------------------------|
-------------------------------------------------------------------|
-------------------------------------------------------------------|


-----------------------------------------------------------------------|
-10-10-10-10-8-7-------------------8-8--10-15b-15b-15b-15b-15b-15b-15b-|
-----------------7-7-----7-9-7-9-9-------------------------------------|
---------------------7h9-----------------------------------------------|
-----------------------------------------------------------------------|
-----------------------------------------------------------------------|


----------------------------------------------------------------------|
-12p10-12p10-12p10-12p10-12p10-12-12p10-12p-10-8-8-10-8-7-7-8p7-7-7-7-|
----------------------------------------------------------------------|
----------------------------------------------------------------------|
----------------------------------------------------------------------|
----------------------------------------------------------------------|


---------------------------|
-8p7-----------------------|
-----9-9-7---7-------7h9-7-|
-----------9----7h9--------|
---------------------------|
---------------------------|

Fuzz
Tap to rate this tab
# A B C D E F G H I J K L M N O P Q R S T U V W X Y Z