Song name
# A B C D E F G H I J K L M N O P Q R S T U V W X Y Z

Dinosaur Jr - Sludgefeast tab

Sludgefeast
Dinosaur Jr.

First Riff, after feedback:
E----------------------------|
B----------------------------|
G--6--6--6-6--6-6------------|
D--6--6--6-6--6-6------------|
A--4--4--4-4--4-4------------|
E-----------------0-0-0-0----|

Riff 2:
E-------------------------------|
B-------5h7--5h7----------------|
G--5/7------------5-----5-------|
D--5/7------------5--3--5-------|
A--3/5------------3--3--3-------|
E--------------------1----------|

Then the tremolo-picked bit, on top of riff 1:
e--------------------|
B--9-7-9-10-7-5-3-2--|
G--------------------|
D--------------------|
A--------------------|
E--------------------|

Verses:
Play this all the way through each of the verses.
e--------------------------|
B--------------------------|
G--2--2--------------------|
D--2--2--4-4-4-4-4-4-------|
A--0--0--4-4-4-4-4-4-------|
E--------2-2-2-2-2-2-------|

Then there are two solos together which are impossible to tab...

The song repeats after that, and eventually breaks down into white noise, which fades 
this riff bursts out, with a crazy solo on top. I couldn't be bothered to put in the 
number of strums, buts its easy to work out from the song.
e----------------------|
B----------------------|
G----------------------|
D--5--4-4-4--5--2-2-2--|
A--5--4-4-4--5--2-2-2--|
E--3--2-2-2--3--0-0-0--|

What a tab!!!
Tap to rate this tab
 
# A B C D E F G H I J K L M N O P Q R S T U V W X Y Z