Song name
# A B C D E F G H I J K L M N O P Q R S T U V W X Y Z

Dinosaur Jr - What Else Is New tab

What Else Is New? - Dinosaur Jr.


e-15b-15--15-13-12-12-13-12-12-12-----------------------------------------|
b----------------------------------------------------------13-15--13-13---|
g---------------------------------12-12b-12-12b-12---12/14----------------|
d-------------------------------------------------------------------------|
a-------------------------------------------------------------------------|
e-------------------------------------------------------------------------|


e-------------------------------------------------------------------------|
b-10p13p10-10-10-----------------------------------------------10---------|
g----------------10-9-9-10b-9---------------------10-9-9-10/12----12------|
d-----------------------------10--------10p12p10--------------------------|
a---------------------------------10p12-----------------------------------|
e-------------------------------------------------------------------------|


e--------------------10-13-12--15b-15b-15-13-12-12p13p12------------------|
b-10p13p10----10--13-------------------------------------15b-15-13p15p13--|
g----------12-------------------------------------------------------------|
d-------------------------------------------------------------------------|
a-------------------------------------------------------------------------|
e-------------------------------------------------------------------------|


e---------------------------------------------------|
b-12p13p12------------------------------------------|
g----------12-10-9----------------------------------|
d------------------10----------10p12p10-------------|
a---------------------10p12p10----------------------|
e---------------------------------------------------|


100% correct. tabbed by blake brown... darkglobe2007@yahoo.com
Tap to rate this tab
 
# A B C D E F G H I J K L M N O P Q R S T U V W X Y Z