Song name
# A B C D E F G H I J K L M N O P Q R S T U V W X Y Z

Dinosaur Jr - Sameday tab

J Mascis song off More Light

As with anything by J - don't quote me on the lyrics (or guitar for that matter!!)

I'm calling things verse/bridge only because I'm not sure how you would define the 
of this song!?!
"verses" 1&3, and 2&4 have the same pattern to them

VERSE 1
A      A* (slide to A 12fret)
I woke up
Fm                    D
suddenly your the one I love
A      A*
It's the sameday
Fm                    D

A      A*
I got pissed
Fm                    D
But it's gotta do with this
A      A*
On the Sameday
Fm                    D
It's the sameday

BRIDGE
Bm              C#m
Yeah they'll be grateful son
E             D
if you wanted my light
Bm             C#m
It's what you ask for, do your best
E               D
Don't mess with my light
-------------------------------|
-7-10-9-7-9-10--7-10-9-7-9-10--|
-7--------------7--------------|
-7--------------7--------------|
-5--------------5--------------|
-------------------------------|

-------------------7h9-7h9-7h9-7h9-12---|
-7-10-9-7-9-10-9-10---------------------|
-7--------------------------------------|
-7--------------------------------------|
-5--------------------------------------|
----------------------------------------|

VERSE 2
A           E
Dream of pictures sent to me
Fm          C#m          D
couldnt hold it that was my life
-----------------|
-99910--9997-----|
-77777 -7777-----| x2
-77777 -7777-----|
-----------------|
-----------------|
It's sad to know you're gone

A           E
Piece together you and me
Fm          C#m          D
Gifts mean everything to my life
-----------------|
-99910--9997-----|
-77777 -7777-----| x2
-77777 -7777-----|
-----------------|
-----------------|
Be glad nobody told you

A           E
Rain on, Rain on,
Fm          C#m          D
Rain on, now that was my life
-----------------|
-99910--9997-----|
-77777 -7777-----| x2
-77777 -7777-----|
-----------------|
-----------------|
Rain on, Rain o-o-on

A           E
Bring em where they oughta be
Fm          C#m          D
Make a power come with my life
-----------------|
-99910--9997-----|
-77777 -7777-----| x2
-77777 -7777-----|
-----------------|
-----------------|

BRIDGE
Bm              C#m
Locked the door and hit the floor
E             D
now that is my life
Bm             C#m
Now look at everything
E               D
It's beautiful, it's my life
-------------------------------|
-7-10-9-7-9-10--7-10-9-7-9-10--|
-7--------------7--------------|
-7--------------7--------------|
-5--------------5--------------|
-------------------------------|

-------------------7h9-7h9-7h9-7h9-12---|
-7-10-9-7-9-10-9-10---------------------|
-7--------------------------------------|
-7--------------------------------------|
-5--------------------------------------|
----------------------------------------|

VERSE 3
A      A* (slide to A 12fret)
all a dream
Fm                    D
you can tell me what I mean
A      A*
It's the sameday
Fm                    D
It's the sameday

A      A*
Judgements off
Fm                    D
Gotta go with my first call
A      A*
On the Sameday
Fm                    D
It's the sameday

Solo over Bridge pattern

VERSE 4
A           E
Piece together you and me
Fm          C#m          D
Gifts mean everything to my life
-----------------|
-99910--9997-----|
-77777 -7777-----| x2
-77777 -7777-----|
-----------------|
-----------------|
Be glad nobody told you

A           E
Rain on, Rain on,
Fm          C#m          D
Rain on, now that was my life
-----------------|
-99910--9997-----|
-77777 -7777-----| x2
-77777 -7777-----|
-----------------|
-----------------|
Rain on, Rain o-o-on

A           E
Bring em where they oughta be
Fm          C#m          D
Make a power come with my life
-----------------|
-99910--9997-----|
-77777 -7777-----| x2
-77777 -7777-----|
-----------------|
-----------------|

And so it goes...
Tap to rate this tab
# A B C D E F G H I J K L M N O P Q R S T U V W X Y Z