Song name
# A B C D E F G H I J K L M N O P Q R S T U V W X Y Z

Dinosaur Jr - Kracked tab

DINOSAUR JR.
KRACKED
YOU'RE LIVING ALL OVER ME
STANDARD TUNING - E A D G B E
transcribed by Neil Cabatingan
------------------------------

INTRO: (distortion)
e|---------------------------|
B|---------------------------|
G|---------------------------|
D|--3-3-3-3-3-3-3-3-3-3-3-3--|
A|--3-3-3-3-3-3-3-3-3-3-3-3--|
E|--1-1-1-1-1-1-1-1-1-1-1-1--|
  PM.......................

e|-------------|--------------|-----------|-----------|---------|
B|-----10------|------10------|-----------|-----------|------8--|
G|-7-10---10-7-|-9~-10---10-9-|--7-7-7-7--|--9-9-9-9--|--9-7----|
D|-------------|--------------|--5-5-5-5--|--7-7-7-7--|---------|
A|-------------|--------------|-----------|-----------|---------|
E|-------------|--------------|-----------|-----------|---------|

e|-------------|--------------|-----------|-------|--------|
B|------10-----|------10------|-----------|-------|--------|
G|-7-10---10-7-|-9~-10---10-9-|--7-7-7-7--|-------|--10-9--| x2
D|-------------|--------------|--5-5-5-5--|--6-6--|--------|
A|-------------|--------------|-----------|--4-4--|---8-7--|
E|-------------|--------------|-----------|-------|--------|

VERSE:(clean)
          "come on babeeeeeee         come on set me freeee
e|-------------|--0-0-0-0-0--|-------------|--0---------|
B|----3-3-3-3--|--3-3-3-3-3--|----3-3-3-3--|--3---------|
G|----0-0-0-0--|--2-2-2-2-2--|----0-0-0-0--|--2--2-2-2--|
D|----2-2-2-2--|--0-0-0-0-0--|----2-2-2-2--|--0--2-2-2--|
A|--3-3-3-3-3--|-------------|--3-3-3-3-3--|-----0-0-0--|
E|-------------|-------------|-------------|------------|
       "i've paid my crimeee         come on babeeeeeeeeee
e|-------------|-------------|-------------|--2-2-2-2-2-|
B|----3-3-3-3--|-------------|----3-3-3-3--|--3-3-3-3-3-|
G|----0-0-0-0--|-------------|----0-0-0-0--|--2-2-2-2-2-|
D|----2-2-2-2--|--2-2-2-2-2--|----2-2-2-2--|--0-0-0-0-0-|
A|--3-3-3-3-3--|--2-2-2-2-2--|--3-3-3-3-3--|------------|
E|-------------|--0-0-0-0-0--|-------------|------------|
      "come on rescue meeee        just this last timeee
e|-------------|--0----------|-------------|------------|
B|----3-3-3-3--|--3----------|----3-3-3-3--|------------|
G|----0-0-0-0--|--2--2-2-2---|----0-0-0-0--|------------|
D|----2-2-2-2--|--0--2-2-2---|----2-2-2-2--|--2-2-2-2---|
A|--3-3-3-3-3--|-----0-0-0---|--3-3-3-3-3--|--2-2-2-2---|
E|-------------|-------------|-------------|--0-0-0-0---|

e|---------------------|
B|----3-3-3-3-3-3-3-3--|
G|----0-0-0-0-0-0-0-0--|
D|----2-2-2-2-2-2-2-2--|
A|--3-3-3-3-3-3-3-3-3--|
E|---------------------|

PRE SOLO:(distortion)
PM.............
e|-----|------|
B|-----|------|
G|--9--|------| x2 play each chord approx 12 times
D|--9--|--10--|
A|--7--|--10--|
E|-----|---8--|

e|-------|----------------------------|---------|-------------------------|
B|-------|----------------------------|---------|-------------------------|
G|--9-9--|-----12-12-12-12-11--11-11--|---------|-------------------------|
D|--9-9--|----------------------------|--10-10--|-----12-12-12-12--9-9-9--|
A|--7-7--|----------------------------|--10-10--|-------------------------|
E|-------|----------------------------|---8--8--|-------------------------|

e|-------|----------------------------|
B|-------|----------------------------|
G|--9-9--|-----12-12-12-12-11--11-11--|
D|--9-9--|--10------------------------|
A|--7-7--|----------------------------|
E|-------|----------------------------|

GUITAR SOLO: 
just lots of feedback and effects. Difficult to hear.
I think you could just solo with the E pentatonic scale, but i'm not sure.

POST SOLO: (just bass playing for a few bars)

CHORUS:
1st - I plead the casee    I need to space 
2nd - Don't let it wait    I plead the case 
3rd - I need to space      Don't let it wait 
      e|--0~------------------------------|
      B|--0~---------------1-1~-----------|
      G|--0~---------------0-0~-----------| x3
      D|--2~---------------2-2~-----------|
      A|--2~---------------3-3~-----------|
      E|--0~------------------------------|

e|--------|--------------------------|----------|-----------------------|
B|--------|--------------------------|----------|-----------------------|
G|--/9-9--|---12-12-12-12-11--11-11--|----------|-----------------------|
D|--/9-9--|--------------------------|--/10-10--|---12-12-12-12--9-9-9--|
A|--/7-7--|--------------------------|--/10-10--|-----------------------|
E|--------|--------------------------|---/8--8--|-----------------------|

e|------------------------|----------------------------------|
B|------------------------|--/12-12-12--12-12-12--12-12-12/--| drum fill
G|--9--11--12--11--12-14--|----------------------------------|
D|--x---x---x---x---x--x--|----------------------------------|
A|--7---9--10---9--10-12--|----------------------------------|
E|------------------------|----------------------------------|

VERSE 2:(clean)
          "come on babeeeeeee         come on set me freeee
e|-------------|--0-0-0-0-0--|-------------|--0---------|
B|----3-3-3-3--|--3-3-3-3-3--|----3-3-3-3--|--3---------|
G|----0-0-0-0--|--2-2-2-2-2--|----0-0-0-0--|--2--2-2-2--|
D|----2-2-2-2--|--0-0-0-0-0--|----2-2-2-2--|--0--2-2-2--|
A|--3-3-3-3-3--|-------------|--3-3-3-3-3--|-----0-0-0--|
E|-------------|-------------|-------------|------------|
       "i've paid my crimeee         come on babeeeeeeeeee
e|-------------|-------------|-------------|--2-2-2-2-2-|
B|----3-3-3-3--|-------------|----3-3-3-3--|--3-3-3-3-3-|
G|----0-0-0-0--|-------------|----0-0-0-0--|--2-2-2-2-2-|
D|----2-2-2-2--|--2-2-2-2-2--|----2-2-2-2--|--0-0-0-0-0-|
A|--3-3-3-3-3--|--2-2-2-2-2--|--3-3-3-3-3--|------------|
E|-------------|--0-0-0-0-0--|-------------|------------|
      "come on rescue meeee        just this last timeee
e|-------------|--0----------|-------------|------------|
B|----3-3-3-3--|--3----------|----3-3-3-3--|------------|
G|----0-0-0-0--|--2--2-2-2---|----0-0-0-0--|------------|
D|----2-2-2-2--|--0--2-2-2---|----2-2-2-2--|--2-2-2-2---|
A|--3-3-3-3-3--|-----0-0-0---|--3-3-3-3-3--|--2-2-2-2---|
E|-------------|-------------|-------------|--0-0-0-0---|

e|---------------------|
B|----3-3-3-3-3-3-3-3--|
G|----0-0-0-0-0-0-0-0--|
D|----2-2-2-2-2-2-2-2--|
A|--3-3-3-3-3-3-3-3-3--|
E|---------------------|

end on

e|-------------|
B|-------------|
G|-------------|
D|--2-2-2-2-2--|
A|--2-2-2-2-2--|
E|--0-0-0-0-0--|

Tap to rate this tab
# A B C D E F G H I J K L M N O P Q R S T U V W X Y Z