Song name
# A B C D E F G H I J K L M N O P Q R S T U V W X Y Z

Dinosaur Jr - Flying Cloud tab

Help us improve GuitareTab! Take a short survey!
Highlighted       Show chord diagrams
My take on Flying Cloud, from Martin & Me - J Mascis

Chords:
  Asus     Cmaj7    Dmsus    Dm  
e|-0--------0--------0-------5------|
B|-0--------0--------6-------6------|
G|-6--------5--------7-------7------|
D|-7--------5--------7-------7------|
A|-7--------0--------0-------0------|
E|-5--------X--------X-------X------|
    \
(use thumb)

FIG 1:
e|-5--4-4-5--4-4-5--4-4-4-4--4-|
B|-5--5-5-5--5-5-5--5-5-5-5--5-|
G|-4--4-4-4--4-4-4--4-4-4-4--4-|
D|-0--0-0-0--0-0-0--0-0-0-0--0-|
A|-----------------------------|
E|-----------------------------|

*******************************************************************



Asus                Cmaj7
  Things happen and no one told me

Dmsus             Dm
  You can't think, you can't drink it

Asus               Cmaj7
  You laughed again and you rode me

Dmsus             Dm
  I won't drop it, you can't stop it now



  Asus     
e|-0----0----|
B|-0----0----|
G|-6----6----|
D|-7----7----|      x4
A|-7----7----|
E|-5----0----|



Fig1        Fig1           Asus (with thumb on/off)
       Hey lady, where you goin?

Fig1        Fig1              Asus 
       Hey lady, why ain't it snowing?

Cmaj7                      Asus 
     Were you riding the chair alone?

Fig1       Fig1            Asus 
       Hey lady where's your friend?

Fig1       Fig1               Asus 
       Hey lady, blew you off again

Cmaj7                                   Asus
     Don't worry, I'll ride you up to the top

Fig1       Fig1                         Asus
       Hey lady, sorry, that's the last stop


Asus           Cmaj7
   I'll see you

Asus           Cmaj7
   I'll see you         On the way down

Asus           Cmaj7
   I'll see you

Dmsus           Dm
      In the last flying cloud

Asus           Cmaj7
   I'll see you 

Asus           Cmaj7
   I'll see you         On the way down

Asus           Cmaj7


Dmsus           Dm              A
      In the last flying cloud



And so it goes...
Related for Flying Cloud tab