Song name
# A B C D E F G H I J K L M N O P Q R S T U V W X Y Z

Dinosaur Jr - In A Jar tab

DINOSAUR JR.
IN A JAR
YOU'RE LIVING ALL OVER ME
STANDARD TUNING - E A D G B E
transcribed by Neil Cabatingan
------------------------------

INTRO/VERSE: "I'll be grazing by your window..."
   C      G     E     A
e|-----|-----|-----|-----|
B|-----|-----|-----|-----|
G|--5--|-----|--1--|--2--| x3
D|--5--|--5--|--2--|--2--|
A|--3--|--5--|--2--|--0--|
E|-----|--3--|--0--|-----|

PRECHORUS: "It's hard to still make the.."

 |  C  |  G  |  A  |  A  |

CHORUS: "I know you don't have the patience..."
e|--------------------|------------|-----------|--------------|
B|--------------------|------------|-----------|--------------|
G|--------------------|------------|-----------|--------------| x2
D|--------------------|------------|-----------|--------------|
A|--------------------|------------|----7------|--/7-7-7-7-7--|
E|--10-10-10-10-10-10-|--10-8-7-8--|--5-5-5-5--|--------------|

"In a jar where you believe..."
            D                     C                G
e|-------------------------|----------------|--------------|
B|-------------------------|----------------|--------------|
G|-------------------------|----------------|--------------| x4
D|-12-12-12-12-12-12-12-12-|-10-10-10-10-10-|-5-5-5-5-5-5--|
A|-12-12-12-12-12-12-12-12-|-10-10-10-10-10-|-5-5-5-5-5-5--|
E|-10-10-10-10-10-10-10-10-|--8--8--8--8--8-|-3-3-3-3-3-3--|

VERSE

PRECHORUS

"I can feel its just a little, more..."
    B
e|--7--| hold and strum
B|--7--|
G|--8--|
D|--9--|
A|--9--|
E|--7--|

BRIDGE:
    F#     C#   E  C#     B A
e|------|--------------|--------|
B|------|--------------|--------|
G|--11--|--------------|--------| x4
D|--11--|--11~-/14/11--|--9/7---|
A|---9--|--------------|--------|
E|------|---9~-/12/9---|--7/5---|

"I watch you from afar babe..."
        D               C#                 D          
e|---------------|------------------|---------------|
B|---------------|------------------|---------------|
G|---------------|---8--8--8--8--8--|---------------| x3
D|--12-12-12-12--|--11-11-11-11-11--|--12-12-12-12--|
A|--12-12-12-12--|--11-11-11-11-11--|--12-12-12-12--|
E|--10-10-10-10--|---9--9--9--9--9--|--10-10-10-10--|
<   repeat these chords playing these fills below   >
      
e|----------|----------|-----------------|
B|----------|----------|-----------------|
G|----------|----------|-------9b11r9-9~-|
D|-6-7-9----|-----7----|-----7-----------|
A|-------7~-|-7-9------|-7-9-------------|
E|----------|-------0~-|-----------------|

"..just cant, stopppp..."
      D              C#
e:-------------|----------------|
B:-------------|----------------|
G:-------------|----------------|
D:-12-12-12-12-|-11-11-11-11-11-| strum fast
A:-12-12-12-12-|-11-11-11-11-11-|
E:-10-10-10-10-|--9--9--9--9--9-|

GUITAR SOLO:
   A     Dsus
e|-----|-----------------------|
B|--2--|--2---------3-2-0-2----|
G|--2--|--3---2-4-2------------| x4
D|--2--|--0--------------------|
A|--0--|-----------------------|
E|-----|-----------------------|

e|-----------------------------------------------------------------------|
B|-----------------------------------------------------------------------|
G|--/14-13---------------------------------------------------------------|
D|---------14-------12-11-------12-11-12-11-12-14b/r---------------------|
A|------------14-12----------12------------------------------------------|
E|------------------------14---------------------------------------------|

e|--------------------14----14/12----14----17b/r--14-12------------------|
B|--14-12-14-15-14-15----15-------15----15-------------15-15b/r----------|
G|-----------------------------------------------------------------------|
D|--------------------------------------------------------------12*------|
A|-----------------------------------------------------------------------|
E|-----------------------------------------------------------------------|
* whammy bar bend

CHORUS ("In a jar where we..."

VERSE/OUTRO (play it only once end on A)
Tap to rate this tab
 
# A B C D E F G H I J K L M N O P Q R S T U V W X Y Z