Song name
# A B C D E F G H I J K L M N O P Q R S T U V W X Y Z

Dinosaur Jr - Forget The Swan tab

Highlighted       Show chord diagrams
-----------------------------------------------------------------------------
			     FORGET THE SWAN - Dinosaur Jr
-----------------------------------------------------------------------------
Tabbed by: Chapman Li )aka SonicYouthRules)
Email: chapman_li@hotmail.com

Tuning: Standard

This is a chords version of Forget the Swan - made this as I find it a lot easier with 
laid out like this when I'm singing the song. Hope it helps some people out there and 
me a rating if you like. Can't wait to see them in London on December 6th!


INTRO

e|------1-0----3--------------------------------------------------------------|
B|---1--------1----0-1-0------------------------------------------------------|
G|--2-2---------------2-------------------------------------------------------|
D|----------------------------------------------------------------------------|
A|----------------------------------------------------------------------------|
E|----------------------------------------------------------------------------| X4

e|--------------------------------------------------------------------------|
B|--------------------------------------------------------------------------|
G|--0-0-0---0-2-0-2-0-0-----------------------------------------------------|
D|--------------------------------------------------------------------------|
A|--------------------------------------------------------------------------|
E|--------------------------------------------------------------------------|

VERSE 1

Am             Em          Am       Em
It's floating through the abyss
Am           Em       Dsus       Em
Under the bridge my head swings down
Am          Em         Am       Em
Beware her wrath, the image gone
Am         Em          Dsus       Em
The Shell is crumbling, fix my frown


PRECHORUS

B         C                 D
This spell would be clear in non-tradition
And stepping on these pieces of pain and smirk
And rape goes through to sin my eyes
And shapes know where the heartache will lurk


CHORUS

Am           Em           C          D
Forget the swan, a stone swims near
A stone has come, if I could cheer
Forget the swan
Forget the swan

VERSE 2

Am            Em         Am        Em
Drifting among this ru-u-ubble
Am          Em         Dsus       Em
I guess the waiting, wished I would
Am         Em          Am          Em
I found a box, untethered and true
Am         Em         Dsus        Em
Possession it understood


BREAK (B - C - D) x4


CHORUS

Am            Em            C           D
Forget the swan, a stone swims near
A stone has come, if I could cheer
Forget the swan
Forget the swan


repeat Intro


BRIDGE

G                              Am
How I tried to warn my neighbor
But the corn was much too high
In confusion up and threw him, woke up every day
But it's not too late brother, I'll still say you were mine

CHORUS

Am            Em             C      D
Forget the swan, a stone swims near
A stone has come, if I could cheer
Forget the swan
Forget the swan

OUTRO

Am            Em              C
Forget the swan, the dreams are gone
D                                Am
The pain goes on, they fly at dawn

Am           Em       C    D
Forget the swan
Forget the swan
Forget the swan
Forget the swan

| /  slide up
| \  slide down
| h  hammer-on
| p  pull-off
| ~  vibrato
| +  harmonic
| x  Mute note
=============================================================================
Tap to rate this tab
# A B C D E F G H I J K L M N O P Q R S T U V W X Y Z