Song name
# A B C D E F G H I J K L M N O P Q R S T U V W X Y Z

Dinosaur Jr - Lung tab

The lung by dinosaur jr, album: you're living all over me

tuning: down 1/2 step down(in the album)

Intro:
(Distortion)
Eb|-----|
Gb|-(2)-|
Gb|--2--|(several times)
Db|--2--|
Ab|--0--|
Eb|-----|

Eb|-1-11-11-x-11-11-11-x-11-11-11------------------0-0-0-0-0-0-00-0-0|
Gb|-1-11-11-x-11-11-11-x-11-11-11--0-0-0-0-0-3-5-0-1-1-1-3-0-1-11-0-1|
Gb|-x-xx-xx-x-xx-xx-xx-x-xx-xx-xx------------------0-0-0-0-0-0-00-0-0|(x4)
Db|-3-33-33-x-33-33-33-x-33-33-33------------------2-2-2-2-2-2-22-2-2|
Ab|-3-33-33-x-33-33-33-x-33-33-33------------------3-3-3-3-3-3-33-3-3|
Eb|------------------------------------------------------------------|

Riff a

Eb|----------------------------------------------0-0-|
Gb|---------0----------0-1-0------------0-----0--1-1-|
Gb|----0-----0---0------------0----0-----0-------0-0-|(x4)
Db|--2--2-2----2--2-2--------2---2--2-2-----2----2-2-|
Ab|-3-3--3-3--3-3--3-3----------3-3--3-3---3-3---3-3-|
Eb|--------------------------------------------------|

Riff b
  (clean)                        (distortion)
Eb|--------------------------0----0-0-0-0-0-0--0-000000-0-000000-|
Gb|-----------0----------------0--0-1-3-0-1-3--0-000000-0-000000-|
Gb|----0---------0----0-----------0-0-0-0-0-0--0-000000-0-000000-|(x1)
Db|--2-----2--------2-----2-------2-2-2-2-2-2--2-222222-2-222222-| 
Ab|-3-3---3-3------3-3---3-3------3-3-3-3-3-3--3-333333-3-333333-|
Eb|--------------------------------------------------------------|

Verse:

(Distotion)
Eb|-3-3-3--3-3-3--0-0-0--0-0-0-0--0-0-0-0-|
Gb|-0-0-0--2-2-2--1-0-1--0-1-0-1--3-0-1-0-|
Gb|-0-0-0--3-3-3--0-0-0--0-0-0-0--0-0-0-0-|
Db|-0-0-0--0-0-0--2-2-2--2-2-2-2--2-2-2-2-|
Ab|-2-2-2---------3-3-3--3-3-3-3--3-3-3-3-|
Eb|-3-3-3---------------------------------|

Ending:
                         (Distortion)
Eb|-----0-----0-----|    |(0)--------------------------------------------|
Gb|-------0-----0---|    |-5------------10-10-10-10-10-10-10-10----------|
Gb|---6-----6-----6-|(x4)|-6(several----9--9--9--9--9--9--9--9-(tremolo)-|
Db|-7---------------|    |-7---times)---9--9--9--9--9--9--9--9-----------|
Ab|-----------------|    |-7---------------------------------------------|
Eb|-----------------|    |-----------------------------------------------|

Tap to rate this tab
 
# A B C D E F G H I J K L M N O P Q R S T U V W X Y Z