Song name
# A B C D E F G H I J K L M N O P Q R S T U V W X Y Z

Dinosaur Jr - Crumble tab

Artist: Dinosaur Jr.
Composer: J Mascis
Song: Crumble
Album: Beyond
Transcribed by: Paul Mangnall
Email: paul.mangnall@gmail.com

Notes:
---------------------------------------------------------------

Capo on 5th

( ) mean the notes aren't the main focus, play them optionally.

The rhythm transcribed is rough and is for use as a guide,
listen to the song and you'll figure it out.

You can play FM7 as F if you want, but after watching J I don't
think it is.

---------------------------------------------------------------


Chord List, Fills & Solo:
---------------------------------------------------------------

 FM7	C	Am	G
-0------0-------0-------3-|
-1------1-------1-------0-|
-2------0-------2-------0-|
-3------2-------2-------0-|
-x------3-------0-------2-|
-x------x-------x-------3-|


 Fill 1
-3-3-3---3-/-5--0--|
-1-1-1--(1)/(3)(0)-|
-0-0-0--(0)/(0)(0)-|
-2-2-2--(2)/(4)----|
-3-3-3--(3)/(5)----|
-x-x-x--(x)/(x)----|


 Fill 2
--0--1--0-(0)(0)-|
-(0)(0)(0)-3--1--|
-(0)(0)(0)(0)(0)-|
-(2)(2)(2)(2)(2)-|
-(3)(3)(3)(3)(3)-|
-(x)(x)(x)(x)(x)-|


 Fill 3.1
-----------------3-3-------0--3-3-0--3-0-|
-----------------0-0-------1--1-1-1--1-1-|
-0-2-0---0-2-0---0-0-2/4-4-2--2-2-2--2-2-|
-------2-------2-0-0-------3--3-3-3--3-3-|
-----------------2-2-------x--x-x-x--x-x-|
-----------------3-3-------x--x-x-x--x-x-|


 Fill 3.2
-----------------3-3-------0--3-3-0--0--3-3-(0)-|
-----------------0-0-------1--1-1-1--1--0-0-(0)-|
-0-2-0---0-2-0---0-0-2/4-4-2--2-2-2--2--0-0-(0)-|
-------2-------2-0-0-------3--3-3-3--3--0-0-(0)-|
-----------------2-2-------x--x-x-x--x--2-2-(0)-|
-----------------3-3-------x--x-x-x--x--3-3-(0)-|


 Fill 3.3
-----------------3-3-------0--3-3-0-3-0-3-|
-----------------0-0-------1--1-1-1-1-1-1-|
-0-2-0---0-2-0---0-0-2/4-4-2--2-2-2-2-2-2-|
-------2-------2-0-0-------3--3-3-3-3-3-3-|
-----------------2-2-------x--x-x-x-x-x-x-|
-----------------3-3-------x--x-x-x-x-x-x-|


 Fill 3.4
-----------------3-3-------0--3-0-3-0-3-0-|
-----------------0-0-------1--1-1-1-1-1-1-|
-0-2-0---0-2-0---0-0-2/4-4-2--2-2-2-2-2-2-|
-------2-------2-0-0-------3--3-3-3-3-3-3-|
-----------------2-2-------x--x-x-x-x-x-x-|
-----------------3-3-------x--x-x-x-x-x-x-|


 Fill 5
-3-(3)-(3)-|
-0--1---0--|
-0-(0)-(0)-|
-0-(0)-(0)-|
-2-(2)-(2)-|
-3-(3)-(3)-|


 Fill 6 - End (Very Rough, just play whatever similar).
-0-----------0---------------0----------0------------0-|
-1-1-0--1-0--0-0-0h1-0-1-3-1-1-1-0--1-0-0-1-0-0-1-3--1-|
-2-----------0---------------2----------0------------2-|
-2-----------0---------------2----------0------------3-|
-0-----------2---------------0----------2------------0-|
-x-----------3---------------x----------3------------x-|


 Solo Rhythm
-0--0-0-0-0-0-0--0-0-0-0-0-0--0-0-0-0-0-0--0-0-0-0-0-|
-1--0-0-1-1-3-0--0-0-1-1-3-0--3-3-1-1-0-0--3-3-1-1-0-|
-2--2-2-2-2-2-2--2-2-2-2-2-0--0-0-0-0-0-0--0-0-0-0-0-|
-2--2-2-2-2-2-2--2-2-2-2-2-0--0-0-0-0-0-0--0-0-0-0-0-|
-0--0-0-0-0-0-0--0-0-0-0-0-2--2-2-2-2-2-2--2-2-2-2-2-|
-x--x-x-x-x-x-x--x-x-x-x-x-3--3-3-3-3-3-3--3-3-3-3-3-|

-0--0-0-0-0-0-0--0-0-0-0-0-0--0-0-0-0-0-0-|
-1--0-0-1-1-3-0--0-0-1-1-3-0--3-3-1-1-0-0-|
-2--2-2-2-2-2-2--2-2-2-2-2-0--0-0-0-0-0-0-|
-2--2-2-2-2-2-2--2-2-2-2-2-0--0-0-0-0-0-0-|
-0--0-0-0-0-0-0--0-0-0-0-0-2--2-2-2-2-2-2-|
-x--x-x-x-x-x-x--x-x-x-x-x-3--3-3-3-3-3-3-|


 Solo
------------------------------------|
------------------------------------|
-----0h2-0-------------0h2-0----2b4-|
-0h2----------2----0h2--------------|
------------------------------------|
------------------------------------|

---------------------------------------------|
------------------0-1p0----0-----------------|
-----0h2-0----0-2-------2b---2p0---0-2/5-4-2-|
-0h2-----------------------------2-----------|
---------------------------------------------|
---------------------------------------------|

---------------------------------------|
---------------------------------------|
---------------------------------------|
-5\3-3-3-3\2-2-3-2h3p2-0---------------|
-------------------------3-2-0-2-0-----|
-----------------------------------3-1-|

---------------------------------------------------------------


Song Structure & Lyrics:
---------------------------------------------------------------

Intro
FM7 | C | Fill 1 | FM7 | C | Fill 2

FM7			 C
I got nothin' where I've been

	 Fill 1
Will you bring me there again?

FM7		   C
No-one ever understands

	  Fill 2
You won't change to help them


FM7		    C
I got lost inside a lie

       Fill 1
With a smile you made it die

FM7			   C
I'm not there and you know why

      Fill 2	      Fill 3.1
And I run to get some more.

Fill 3.2
More.


FM7		       C
Can I be there all the time.

      Fill 1
Can I stop  wondering why?

Fm7		       C
Will I crumble? will I fly?

	 Fill 2
And I've got to break it.


FM7		     C
Will I be in time to see?

	Fill 1
Will it run over me?

FM7		       C
Can I fake out just to be?

	 Fill 2		 Fill 3.1
You know I can't take it on.

Fill 3.3
On.


Fill 5
	 Fm7	
Held the picture yesterday.

Fill 5
	 Fm7			    Am (palm muted)	
Held the picture of a moment of our love.

    G (palm muted)
Our love.

    Am (palm muted)
Our love.

    G (palm muted)
Our love.


Solo & Solo Rhythm (simultaneously)


FM7		      C
You have time for me again.

	   Fill 1
But you're flatten'n me instead.

FM7			     C
Tried to hear the things you said.

	    Fill 2
Feel like I almost had it.


FM7		       C
But I don't have it at all.

	Fill 1
And I'm sweatin' tryin' to stall.

FM7		       C
'Til I think I heard a call.

	Fill 2		     Fill 3.1		     
I look, you're just laughing on.

Fill 3.4
On.

Fill 3.1
On.

Fill 3.3
On.


Fill 5
	 Fm7	
Held the picture yesterday

Fill 5
	 Fm7			    Am (palm muted)	
Held the picture of a moment of our love.

    G (palm muted)
Our love.

    Am (palm muted)
Our love.

    G (palm muted)
Our love.


Fill 6 - End

---------------------------------------------------------------
Tap to rate this tab
# A B C D E F G H I J K L M N O P Q R S T U V W X Y Z