Song name
# A B C D E F G H I J K L M N O P Q R S T U V W X Y Z

Dinosaur Jr - Little Furry Things tab

Dinosaur Jr. - Little Furry Things
Album: You're Living All Over Me


Intro chords (with wah wah? i guess)
-2--2--2--2--2--2--2----|
-3--3--3--3--3--3--3----|
-0--4--0--4--0--4--0--4-|
-0--4--0--4--0--4--0--4-|
-x--2--x--2--x--2--x--2-|
-3--2--3--2--3--2--3----|

Verse pt. 1

-2--0-----2---------|
-3--0--2--2--3------|
-2--1--2--2--2------|
-0--2--2--4--0------|
----2--0--4--0------|
----0-----2---------|

Verse pt. 2

-2---4------|------------|
-2---5------|--3---------|
-2---6---x3-|--2---------|  x2
-4---6------|--0---------|
-4---4------|--0---------|
-2----------|------------|

Break (i won't tab out the strumming pattern, it's pretty easy to hear)
-----------------------------------|-------------|---------|
-----------------------------------|-------------|---------|
-6--6-7---6--6-7---6--6-7---9---x3-|-44------x3--|--9------|
-7--7-7---7--7-7---7--7-7---7------|-44-444------|--7------|
-0--0-0---5--5-5---0--0-0---0------|-22-444------|--0------|
----------------------------0------|-22-222------|--0------|
                                        p.m.     lower the pitch with
                                                 whammy or tremolo or w/e

repeat the verses twice with a ton of noise the second time around.
Tap to rate this tab
# A B C D E F G H I J K L M N O P Q R S T U V W X Y Z