Song name
# A B C D E F G H I J K L M N O P Q R S T U V W X Y Z

Dinosaur Pile-up - Broken Knee tab

-------------------------------------------------------------------------------
			    Broken Knee - Dinosaur Pile-Up
-------------------------------------------------------------------------------
Tabbed by: Matt
Email: whats_the_point@hotmail.com

Tuning: Standard
 
This is just  the intro.. and also my first tab. I'll try to work out the rest and 
then put it up here.

       
e|---------------------------------------------------------------------------|
B|-----4/10-8----------------------------------------------------------------|
G|-----------9---------9h10p9------------------------------------------------|
D|------------10--10---------10----------------------------------------------|
A|---------------8-----------------------------------------------------------|
E|---------------------------------------------------------------------------|
Tap to rate this tab
 
# A B C D E F G H I J K L M N O P Q R S T U V W X Y Z