Song name
# A B C D E F G H I J K L M N O P Q R S T U V W X Y Z

Dinosaur Pile-up - Barceloner tab

Barce-Loner by Dinosaur Pile up - From the album Growing Pains

(This is how I play it, I've put a guide to how many times certain chords
are strummed, but its best just to listen to song)


part one - intro (once the drums have kicked in)
e------------------------------------------------------------------------|
b------------------------------------------------------------------------|
g------------------------------------------------------------------------|
d--5--8-s-10-8-s-13--8-s-10-8-----5-5-5-8-10-10-10-8-13-13-13-8-10-10-10-|
a--5--8-s-10-8-s-13--8-s-10-8-x2--5-5-5-8-10-10-10-8-13-13-13-8-10-10-10-|x2
d--5--8-s-10-8-s-13--8-s-10-8-----5-5-5-8-10-10-10-8-13-13-13-8-10-10-10-|
  (play this part for just
   the guitar intro)



part two - verse
e------------------------------------------------------------------------|
b------------------------------------------------------------------------|
g------------------------------------------------------------------------|
d--5-----8--10--5-----11--10--5------10----8-----------------------------|
a--5-x13-8--10--5-x13-11--10--5-x14--10-x7-8-x7--------------------------|
d--5-----8--10--5-----11--10--5------10----8-----------------------------|


part three - chorus
e-----------------------------------------------------------|
b-----------------------------------------------------------|
g-----------------------------------------------------------|
d--10-10-8-8-5----10-10-8-8-1----10-10-8-8-5----10----8-----|
a--10-10-8-8-5-x8-10-10-8-8-1-x8-10-10-8-8-5-x8-10-x8-8-x8--| 2nd time around
d--10-10-8-8-5----10-10-8-8-1----10-10-8-8-5----10----8-----|play it twice


middle 8
		  (	2#        )
e------------------------------------------------------------------------|
b------------------------------------------------------------------------|
g------------------------------------------------------------------------|
d--5-----8-10-5----10-11-10-8-10-8-   -----------------------------------|
a--5-x14-8-10-5-x7-10-11-10-8-10-8-x2 -----------------------------------|
d--5-----8-10-5----10-11-10-8-10-8-   -----------------------------------|

		  (after second time
		  (just repeat 2#


part three - chorus
e-----------------------------------------------------------|
b-----------------------------------------------------------|
g-----------------------------------------------------------|
d--10-10-8-8-5----10-10-8-8-1----10-10-8-8-5----10----8-----|
a--10-10-8-8-5-x8-10-10-8-8-1-x8-10-10-8-8-5-x8-10-x8-8-x8--| 2nd time around
d--10-10-8-8-5----10-10-8-8-1----10-10-8-8-5----10----8-----|play it twice



part one - intro (once the drums have kicked in)
e------------------------------------------------------------------------|
b------------------------------------------------------------------------|
g------------------------------------------------------------------------|
d--5--8-s-10-8-s-13--8-s-10-8-----5-5-5-8-10-10-10-8-13-13-13-8-10-10-10-|
a--5--8-s-10-8-s-13--8-s-10-8-x2--5-5-5-8-10-10-10-8-13-13-13-8-10-10-10-|x2
d--5--8-s-10-8-s-13--8-s-10-8-----5-5-5-8-10-10-10-8-13-13-13-8-10-10-10-|
Tap to rate this tab
 
# A B C D E F G H I J K L M N O P Q R S T U V W X Y Z