Song name
# A B C D E F G H I J K L M N O P Q R S T U V W X Y Z

Dio - Egypt The Chains Are On tab

this is the main riff that is played in the beginning I think (i was playing war pigs 
i figured this out) this just a sample but this song needs to be on here and this is my 
tab. even though it say intros are not welcome oh well

e------------------------------------------------------|
b------------------------------------------------------|
g------------------------------------------------------|
d---7--6-7--7--7-8--7--6-7--7--7--7--7-8---------------|
a---5-------5-------5-------5-----5--------------------|
E------------------------------------------------------|

e------------------------------------------------------|
b------------------------------------------------------|
g----------------------------------------7-------------|
d---7--6-7--7--7-8--7--6-7--7--7--7--7-8---------------|
a---5-------5-------5-------5-----5--------------------|
E------------------------------------------------------|

e---------------------------------------------------------|
b---------------------------------------------------------|
g---------------------------------------------------------|
d---7--6-7--7--7-8--7--6-7--7--7--7--7-8--7---5---3--0----|
a---5-------5-------5-------5-----5-------5---3---1-------|
E---------------------------------------------------------|
the 0 at the end is imedidiatly stopped like palm muting after being plucked
Tap to rate this tab
 
# A B C D E F G H I J K L M N O P Q R S T U V W X Y Z