Dio - Dont Talk To Strangers tab

Stopa 1
     E  E  E  E  E  E  E  E     E  E  E  E  E  E  E  E   
E||--------------------------|--------------------------|
B||--------1--------1-----1--|--------1--------1-----1--|
G||-----2--------2-----------|-----3--------3-----------|
D||--0--------0--------0-----|--0--------0--------0-----|
A||--------------------------|--------------------------|
E||--------------------------|--------------------------|


  E  E  E  E  E  E  Q       E  E  E  E  E  E  E  E    
-------------------------|--------------------------||
--------1--------1-------|--------1--------1-----1--||
-----0--------0----------|-----2--------2-----------||
--3--------2--------3----|--0--------0--------0-----||
-------------------------|--------------------------||
-------------------------|--------------------------||




Duration Legend
---------------
Q - quarter
E - 8th
Tap to rate this tab
 
# A B C D E F G H I J K L M N O P Q R S T U V W X Y Z