Song name
# A B C D E F G H I J K L M N O P Q R S T U V W X Y Z

Dio - Rainbow In The Dark tab

               *Dio Rainbow in the Dark*
                  Pinched Harmonics=()

Hey Guys this is Axl Rhoads and this is my first tab.
I tab everything but the solo cuz that would take
forever lol but this is 100% Accurate.

e-----|
b-----|
g-----| (Open the song with this Chord)
d---5-|
a---5-|
E---3-|

                        (Main Riff)
      "When theres Lightning you know it always brings me down"
e------------------------------------------------------------------|
b------------------------------------------------------------------|
g---2----------------------------------2---------------------------|
d---2--------3---3-5-------------------2------3---3-5--------------|
a---0--------3---3-5--(3)-(2)-(0-------0------3---3-5----(3)-(2)---|
E-------3-0--1-0-1-3--------------(3)----3-0--1-0-1-3--------------|(3)

                        (PreChorus)
              "No sign of the morning coming"

e---------------------|
b---------------------|
g---------------------|  Return to Main Riff after this
d----2----3----2----3-|
a----2----3----2----3-|
E----0----1----0----1-|

                       Play this during Solo
e------------------------------------------------------------------|
b------------------------------------------------------------------|
g---2----------------------------------2---------------------------|
d---2--------3---3-5-------------------2------3---3-5--------------|
a---0--------3---3-5--(3)-(2)-(0-------0------3---3-5----(3)-(2)---|
E-------3-0--1-0-1-3--------------(3)----3-0--1-0-1-3--------------|(3)

Check out My You Tube Channel---> http://www.youtube.com/user/SkidRowAXL
For WWE wrestling Review videos, Music Videos, DBZ Amv's and Cover Songs performed by me!
Tap to rate this tab
 
# A B C D E F G H I J K L M N O P Q R S T U V W X Y Z