Guitaretab - guitar tabs
Song name
# A B C D E F G H I J K L M N O P Q R S T U V W X Y Z

Dio - Straight Through The Heart tab

DIO-Straight through the heart  (itís my first time so sorry for any mistakes)

Intro:
e|----------------------------------------------|
B|.---------------------------------------------|
G|-------------------4--x---4b 4-2-4p.o2--------|
D|---4--2--4--7 -4-- 4- x---------------4-2-----|
A|.--4--2--4--7--4---2--x-----------------------|
E|---2--0--2--5--2------------------------------|


e|----------------------------- ---|
B|---------------------------------|
G|---------------------------------|
D|--4--2--4--7--4--2--4--7--4------|
A|--4--2--4--7--4--2--4--7--4------|
E|--2--0--2--5--2--0--2--5--2------|


e|----------------------------------------------|
B|.---------------------------------------------|
G|-------------------4--x---4b 4-2-4p.o2--------|
D|---4--2--4--7 -4-- 4- x---------------4-2-----|
A|.--4--2--4--7--4---2--x-----------------------|
E|---2--0--2--5--2------------------------------|

[ Tab from: http://www.guitaretab.com/d/dio/37820.html ]
e|------------------------------0--|
B|----------------------------0----|
G|--------------------------1------|
D|--4--2--4--7--4--2------2--------|
A|--4--2--4--7--4--2----2----------|
E|--2--0--2--5--2--0---------------|

Verse:

The same as the intro but in the first part you hit only the first note of the power chord

Chorus:

e|-------------------|
B|-------------------|
G|---6-\-9-----------|   Than you continue with the second part of the verse
D|---6-\-9-----------|   without playing the last E
A|---4-\-7-----------|
E|-------------------|

Bridge:

e|----------------------------------------------------|
B|----------------------------------------------------|
G|----------------------------------------------------|
D|----4---6-7---11----9-------7---4-------------------|   (tís the same
A|----4---6-7---11----9-------7---4-------------------|    thing when
E|----2---4-5---9-----7-------5---2-------------------|    solo starts)
You finish it with the end of the verse
Related for Straight Through The Heart tab