Song name
# A B C D E F G H I J K L M N O P Q R S T U V W X Y Z

Dio - Fever Dreams tab

The previous tab here was a bit, no dissing here, wrong..so here is the intro the way it is...
i will see if i can tab the whole song sometime soon..

kumar

----------------------------|   
----------------------------|   
----------------------------|   
----------------------------|x3 
------4--2--4--7--6--2--4---|   
------2--0--2--5--4--0--2---|   



----------------------------|
----------------------------|
----------------------------|
----------------------------|
------4--2--4--7--9--7------|
------2--0--2--5--7--5------|
Tap to rate this tab
# A B C D E F G H I J K L M N O P Q R S T U V W X Y Z