Song name
# A B C D E F G H I J K L M N O P Q R S T U V W X Y Z

Dio - Losing My Insanity tab

This piece is played at a 4/4 timing kind of like greensleeves i may have written it dificult but is 
easy

< / Pulloff
= / Trill

|-----0-3-2---0------------|--0-3-2-0----0-------------|
|---0-------3----1=3=1<0---|-----------3----3--1-3-----|
|--------------------------|---------------------------|
|--------------------------|---------------------------|
|--------------------------|---------------------------|
|--------------------------|---------------------------|

|---0-3-2-0---0------------|---------------------------|
|-0---------3---3-1-3-1<0--|-1<0---0-------------------|
|--------------------------|-----2---2<0--2<0----------|
|--------------------------|-------------------0-2-----|

and thats all i got i think the distorted part is two strings up but im no sure but email me with any 
at www.warlock1205@yahoo.com
this is my first tab so i hope you like it enjoy

We'll Know For the First Time if We're Evil or Divine We're The Last in Line....... Ronnie James Dio
Tap to rate this tab
 
# A B C D E F G H I J K L M N O P Q R S T U V W X Y Z