Song name
# A B C D E F G H I J K L M N O P Q R S T U V W X Y Z

Dio - Lock Up The Wolves tab

-------------------------------------------------------------------------------
			     LOCK UP THE WOLVES - DIO
-------------------------------------------------------------------------------
Tabbed by:THE MUFFIN MAN
Email:

Tuning:STANDARD

e|-----------------------------------------------------------------------------|
B|-----------------------------------------------------------------------------|
G|-----------------------------------------------------------------------------|
D|--------------9--9----------------7--7----------------5--5-------------------|
A|--2----2------7--7----2----2--2---5--5--2-----2---2---3--3----2--------------|
E|--0----0--------------0----0--0---------0-----0---0-----------0--------------|

e|---------------------------------------------------------------------------|
B|---------------------------------------------------------------------------|
G|---------------------------------------------------------------------------|
D|-------9--9------2----5---2------------------------------------------------|
A|-2--2--7--7--2---0------------5---2-----------2-X----7----5--5--5--7-------|
E|-0--0--------0-----------------------6--5--3--0-X---------3--0--3--5-------|

e|---------------------------------------------------------------------------|
B|--------12-----------------------------------------------------------------|
G|--------12-----------------------------------------------------------------|
D|--------12---------------------7-------------------------------------------|
A|--2-X----------5--5--5--5------5----2-X--7---5--5--5--7--------------------|
E|--0-X----------3--0--3--0-----------0-X------3--0--3--5--------------------|

e|---------------------------------------------------------------------------|
B|---------------------------------------------------------------------------|
G|---------------------------------------------------------------------------|
D|---------------------------------------------------------------------------|
A|-------6--7--6----5--4----4--3---------------------------------------------|
E|---/5----------5-------5---------------------------------------------------|


| /  slide up
| \  slide down
| h  hammer-on
| p  pull-off
| ~  vibrato
| +  harmonic
| x  Mute note
===============================================================================
Tap to rate this tab
# A B C D E F G H I J K L M N O P Q R S T U V W X Y Z