Song name
# A B C D E F G H I J K L M N O P Q R S T U V W X Y Z

Dio - Shame On The Night tab

intro:

/ = slide
* = bend

e|--------------------------------------------|
B|--------------------------------------------|
G|--------------------------------------------|
D|--------3*---------------3*-----------------|
A|--0-3-5---5-3/5----0-3-5---5----------------|
E|-----------------------------5/3------------|


e|--------------------------------------------|
B|--------------------------------------------|
G|--------------------------------------------|
D|--------3*--7/5----------3*-----------------|
A|--0-3-5---5--------0-3-5---7/5--------------|
E|---------------------------5/3--------------|
                            (let e3a5 cord ring out)

pre main riff:


e|--------------------------------------------|
B|--------------------------------------------|
G|--------------------------------------------|
D|---------------------------5/7--------------|
A|--5/7----------------------3/5--------------|
E|--3/5---------------------------------------|   
(let cord e5a7 ring out) (let cord a5d7 ring out)


e|--------------------------------------------|
B|--------------------------------------------|
G|--------------------------------------------|
D|--7/5---------------------------------------|
A|--5/3----------------------5/7--------------|
E|---------------------------3/5--------------|
(let cord a3d5 ring out)    (let cord e5a7 ring out)





i believe this is the rhythm guitar. i just kinda of listened to it and tried to figure it out.

send any corecctions or tips to nagi121288@yahoo.com


Tap to rate this tab
# A B C D E F G H I J K L M N O P Q R S T U V W X Y Z