Guitaretab - guitar tabs
Song name
# A B C D E F G H I J K L M N O P Q R S T U V W X Y Z

Dionisio Aguado - Etude - Moderato In Am tab

Etude - Moderato in Am  Time Signature: 2/4

1
 ||-----0---------0---|-----0---------0---|-----0---------0---|
 ||---1---------3-----|---1---------1-----|---3---------1-----|
 ||*2-----2---4-----1-|-2-----------------|-------1---2-----2-|
 ||*------------------|-------2-----------|-2-----------------|
 ||-------------------|-----------3-----0-|-------------------|
 ||-------------------|-------------------|-------------------|

4
 |-----0---------0---|-----0---------0---|-----0---------0---|
 |---0---------0-----|---1---------3-----|---1---------1-----|
 |-1-----------------|-------2---4-----1-|-2-----------------|
 |-------2---0-------|-------------------|-------2-----------|
 |-----------------2-|-0-----------------|-----------3-----0-|
 |-------------------|-------------------|-------------------|

7
 |-----1---------0---|-----0------------||-----0---------1---|
 |---3---------0-----|---1--------------||---1---------0-----|
 |-------------------|-----------------*||*2-----2---0-------|
 |-0---------2-------|-------2---------*||*------------------|
 |-------2-----------|-0---------0------||-------------------|
 |-----------------0-|------------------||-----------------3-|
[ Tab from: http://www.guitaretab.com/d/dionisio-aguado/185889.html ]
10
 |-----0---------0---|-----1---------1---|-----0---------0---|
 |---1---------1-----|---0---------0-----|---1---------1-----|
 |-----------2-----0-|-0---------------2-|-0-----------------|
 |-------2-----------|-------3---0-------|-------2-----------|
 |-3-----------------|-------------------|-----------3-----2-|
 |-------------------|-------------------|-------------------|

13
 |-----0---------0---|-----1---------1---|-----0---------1---|
 |---1---------2-----|---3---------3-----|---1---------0-----|
 |-------2---0-----0-|-------------------|-0-----0-----------|
 |-------------------|-3-----3---0-----3-|-------------------|
 |-0-----------------|-------------------|-------------------|
 |-------------------|-------------------|-----------3-----3-|

16
 |-----0---------0---|-----0---------0---|-----0---------0---|
 |---1---------3-----|---1---------3-----|---1---------1-----|
 |-------------------|-------2---4-----1-|-2-----------------|
 |-------2---------2-|-------------------|-------2-----------|
 |-3---------2-------|-0-----------------|-----------3-----0-|
 |-------------------|-------------------|-------------------|

19
 |-----0---------0---|-----0---------0---|-----0---------5---|
 |---3---------1-----|---0---------3-----|---1---------2-----|
 |-------1---2-----2-|-1-----------------|-------2---0-----0-|
 |-2-----------------|-------2---------2-|-------------------|
 |-------------------|-------------------|-0-----------------|
 |-------------------|-----------0-------|-------------------|

22
 |-----5---------5---|-----5---------4---|-----5------------||
 |---3---------0-----|-------------3-----|------------------||
 |-------------------|---5---------------|---5-------------*||
 |-3-----3---0-----0-|-2-----2---------2-|-------2---------*||
 |-------------------|-------------------|-0---------0------||
 |-------------------|-----------0-------|------------------||

Related for Etude - Moderato In Am tab
Etude - Moderato In Am chords by Dionisio Aguado