Song name
# A B C D E F G H I J K L M N O P Q R S T U V W X Y Z

Dions - Sam The Trolley Man tab

Help us improve GuitareTab! Take a short survey!
chorus
e-----------------------------------------------------------
B-----------------------------------------------------------
G-----------------------------------------------------------
D-----------------------------------------------------------
A-2-----2---------------------------------------------------
E---4-5---4-0000-4-4-2-4------------------------------------
 repeat

words:
chorus
saaaam the trolley man, doing what he can on his trolley

verse 1:
he can ring his great aunt molley
he can sew the head back on dolly

verse 3:
he can give a cracker to polley
he can give dion a lolly

e-----------------------------------------------------------
B-----------------------------------------------------------
G-----------------------------------------------------------
D-----------------------------------------------------------
A---------------------2-------------------------------------
E-000000-2-3-444444-5---------------------------------------

order:
verse 1
chorus
verse 2
chorus
Related for Sam The Trolley Man tab