Song name
# A B C D E F G H I J K L M N O P Q R S T U V W X Y Z

Dioxina - Notte Di Peccato tab

Artista: Dioxina.
Titolo: Notte di peccato.
Accordatura: Standard (EADGBe)


Riff 1.
|----------------------------------------------|
|----------------------------------------------|
|-------11----------------------11---13--------|
|-12----11---7---10-12----12----11---13--10-12-|
|-12----9----7---10-12----12----9----11--10-12-|
|-10---------5---8--10----10-------------8--10-|

Riff 2.
|----------------------------------------------|
|----------------------------------------------|
|-777-7-9-99-9-777-9-99-9-222-555-777-7-9-99-9-|
|-777-7-9-99-9-777-9-99-9-222-555-777-7-9-99-9-|
|-555-5-7-77-7-555-7-77-7-000-333-555-5-7-77-7-|
|----------------------------------------------|

Riff 3.
|------------------------------------------------------------|
|------------------------------------------------------------|
|-7--xx-7--xx-7--xx-7--xx-7-7--7-xxxxx-7-xxxxx-7-xxxxx-777-7-|
|-7--xx-7--xx-7--xx-7--xx-7-7--7-xxxxx-7-xxxxx-7-xxxxx-777-7-|
|-5--xx-5--xx-5--xx-5--xx-5-5--5-xxxxx-5-xxxxx-5-xxxxx-555-5-|
|------------------------------------------------------------|

Riff 4.
|--------------------------------------|
|--------------------------------------|
|-7---9---5----7---11--5----7---13---5-|
|-7---9---5----7---11--5----7---13---5-|
|-5---7---3----5---9---3----5---11---3-|
|--------------------------------------|

Commentate e votate!
Tap to rate this tab
 
# A B C D E F G H I J K L M N O P Q R S T U V W X Y Z