Song name
# A B C D E F G H I J K L M N O P Q R S T U V W X Y Z

Dir En Grey - The Pledge Acoustic tab

Hey! This is my Version of the acoustic Version of The Pledge by Dir en grey. It sounds 
good. On a few parts I think it's not quite right but now you got the key and I think 
you can correct mistakes on your on.

Important is the tuning:

Eb
Ab
Db
Gb
Bb
eb


Write me for questions.

Please rate it.

Have fun.


The Pledge


Guitar 1:

Eb--------^---|---------------|---3--------------------|
Ab-----2--|---|--0------0-----|------------------------|
Db-----4--|---|------2--------|---0--------------------|
Gb-----0--|---|----2----------|-----0------------------|
Bb-----0--|---|--2------3--2--|---0---0----------------|
eb-----0--|---|---------------|------------------------|

Eb------------|------------------|---3-------------|-----------|
Ab-----2------|--0--------0------|-----------------|-----------|
Db-------4----|------2-----------|-----------------|-----------|
Gb---------0--|----2-------------|-----------------|-----------|
Bb------------|--2--------3------|------3-----3--0-|-3-0---3---|
eb------------|--------------0---|---2-----0-------|-----0-----|


Verse:


Guitar 1:

Eb-----------------|---------------------|---3----------------|
Ab-----2-----------|---0-----------------|--------------------|
Db--------4--------|-----2---------------|------0-------------|
Gb-----------4-----|-------2-------------|--------0-----------|
Bb-----3-------3---|---2-----2--------3--|---3------3-----3---|
eb---------------0-|----------------2----|--------------0-----|


Guitar 2:


Eb----------------|----------------------|--------------------|
Ab----------------|----------------------|--------------------|
Db----------------|----------------------|--------------------| 2x
Gb---4------------|----2-----------------|---4----------------|
Bb---3------------|----2-----------------|---3----------------|
eb----------------|----------------------|--------------------|


Eb----------------|----------------------|--------------------|
Ab----------------|----------------------|--------------------|
Db----------------|----------------------|--------------------| 2x
Gb---7------------|----7-----2--2--------|---4----------------|
Bb---7------------|----5-----0--2--------|---3----------------|
eb----------------|----------------------|--------------------|

before the Chorus (I'm about this part not sure)

Eb----------------------|
Ab----------------------|
Db----------------------|
Gb---/4-4---4--2---2----|
Bb--------2------3------|
eb----------------------|

Chorus:

Guitar 1:

Eb---------------------|-3------------------|--0------------------|-2----------------|
Ab-----2---------------|--------------------|---------------------|------------------|
Db-------4---4---------|---0---0------------|-----2---2-----------|---4---4----------|
Gb---------4---4-----4-|-----0---0------0---|-------0---0------0--|-----3---3-----2--|
Bb-----2-----------2---|-3------------3-----|--0-------------0----|-2-----------2----|
eb---------------0-----|------------0-------|--------------0------|-----------2------|


Eb---------------------|--------------------|--0------------------|-2----------------|
Ab-----2---------------|--------------------|---------------------|------------------|
Db-------4---4---------|-0------------------|-----2---2-----------|---4---4----------|
Gb---------4---4-----4-|---2---2--------2---|-------0---0------0--|-----3---4-----2--|
Bb-----2-----------2---|-3---3---3----3-----|--0-------------0----|-2-----------2----|
eb---------------0-----|------------0-------|--------------0------|-----------2------|


Guitar 2:


Eb----------------|--------------------|------------------|--------------------|
Ab----------------|--------------------|------------------|--------------------|
Db----------------|--------------------|------------------|--------------------|
Gb---7----7-------|--2-2-2-------------|--0-0---0---------|---4---4------------|
Bb---7----0-------|--2-3-2-------------|--2-2---3---------|---3---2------------|
eb----------------|--------------------|------------------|--------------------|


Interlude:

Guitar 1:

Eb-----------------|---------------------|---3----------------|
Ab-----2-----------|---0-----------------|--------------------|
Db--------4--------|-----2---------------|------0-------------|
Gb-----------4-----|-------2-------------|--------0-----------|
Bb-----3-------3---|---2-----2---3-------|---3------3-----3---|
eb---------------0-|-----------2---------|--------------0-----|


Eb-----------------|---------------------|---3----------------|
Ab-----2-----------|---0-----------------|--------------------|
Db--------4--------|-----2---------------|------0-------------|
Gb-----------4-----|-------2-------------|--------0-----------|
Bb-----3-------3---|---2-----2---3-------|---3------3-----3---|
eb---------------0-|-----------2---------|--------------0-----|


Guitar 2:


Eb----------------|----------------------|--------------------|--------------|
Ab----------------|----------------------|--------------------|--------------|
Db----------------|----------------------|--------------------|--------------|
Gb---4------------|----2--------------7--|---4----------------|-2---2-----2--|
Bb---3------------|----2--------------7--|---3----------------|---0-----2----|
eb----------------|----------------------|--------------------|--------------|

Eb----------------|----------------------|--------------------|--------------|
Ab----------------|----------------------|--------------------|--------------|
Db----------------|----------------------|--------------------|--------------|
Gb---4------------|----2------------7-7--|---4----------------|-4---4-----2--|
Bb---3------------|----2------------7-5--|---3----------------|---3-----2----|
eb----------------|----------------------|--------------------|--------------|


Verse 2:


Guitar 1:

Eb-----------------|---------------------|---3----------------|
Ab-----2-----------|---0-----------------|--------------------|
Db--------4--------|-----2---------------|------0-------------|
Gb-----------4-----|-------2-------------|--------0-----------|
Bb-----3-------3---|---2-----2--------3--|---3------3-----3---|
eb---------------0-|----------------2----|--------------0-----|


Guitar 2:


Eb----------------|----------------------|--------------------|
Ab----------------|----------------------|--------------------|
Db----------------|----------------------|--------------------| 2x
Gb---4------------|----2-----------------|---4----------------|
Bb---3------------|----2-----------------|---3----------------|
eb----------------|----------------------|--------------------|


Eb----------------|----------------------|--------------------|
Ab----------------|----------------------|--------------------|
Db----------------|----------------------|--------------------| 2x
Gb---7------------|----7-----2--2--------|---4----------------|
Bb---7------------|----5-----0--2--------|---3----------------|
eb----------------|----------------------|--------------------|


before the Chorus (I'm about this part not sure)

Eb----------------------|
Ab----------------------|
Db----------------------|
Gb---/4-4---4--2---2----|
Bb--------2------3------|
eb----------------------|

Chorus:

Guitar 1:

Eb---------------------|-3------------------|--0------------------|-2----------------|
Ab-----2---------------|--------------------|---------------------|------------------|
Db-------4---4---------|---0---0------------|-----2---2-----------|---4---4----------|
Gb---------4---4-----4-|-----0---0------0---|-------0---0------0--|-----3---3-----2--|
Bb-----2-----------2---|-3------------3-----|--0-------------0----|-2-----------2----|
eb---------------0-----|------------0-------|--------------0------|-----------2------|


Eb---------------------|--------------------|--0------------------|-2----------------|
Ab-----2---------------|--------------------|---------------------|------------------|
Db-------4---4---------|-0------------------|-----2---2-----------|---4---4----------|
Gb---------4---4-----4-|---2---2--------2---|-------0---0------0--|-----3---4-----2--|
Bb-----2-----------2---|-3---3---3----3-----|--0-------------0----|-2-----------2----|
eb---------------0-----|------------0-------|--------------0------|-----------2------|


Guitar 2:


Eb----------------|--------------------|------------------|--------------------|
Ab----------------|--------------------|------------------|--------------------|
Db----------------|--------------------|------------------|--------------------|
Gb---7----7-------|--2-2-2-------------|--0-0---0---------|---4---4------------|
Bb---7----0-------|--2-3-2-------------|--2-2---3---------|---3---2------------|
eb----------------|--------------------|------------------|--------------------|

"Breaking part":

("This is my pledge to you...")

Guitar 1:

Eb-----------------|---------------------|---3----------------|
Ab-----2-----------|---0-----------------|--------------------|
Db--------4--------|-----2---------------|------0-------------|
Gb-----------4-----|-------2-------------|--------0-----------|
Bb-----3-------3---|---2-----2---3-------|---3------3-----3---|
eb---------------0-|-----------2---------|--------------0-----|


Eb-----------------|---------------------|---3----------------|
Ab-----2-----------|---0-----------------|--------------------|
Db--------4--------|-----2---------------|------0-------------|
Gb-----------4-----|-------2-------------|--------0-----------|
Bb-----3-------3---|---2-----2---3-------|---3------3-----3---|
eb---------------0-|-----------2---------|--------------0-----|

Guitar 2:

Eb----------------|----------------------|--------------------|
Ab----------------|----------------------|--------------------|
Db----------------|----------------------|--------------------| 2x
Gb---4------------|----2-----------------|---4----------------|
Bb---3------------|----2-----------------|---3----------------|
eb----------------|----------------------|--------------------|


Bridge:

Guitar 1:


Eb-----------------------|----------------------|
Ab-----2-----------------|---0------------------|
Db--------4----4---------|-----2---2------------|
Gb-----------4---4-----4-|-------2---2------2---|
Bb-----3-------------3---|---2------------2-----|
eb-----------------0-----|--------------0-------|

Eb-----------------------|----------------------|
Ab-----2-----------------|---0------------------|
Db--------4----4---------|-----2---2------------|
Gb-----------4---4-----4-|-------2---2------2---|
Bb-----3-------------3---|---2------------2-----|
eb-----------------0-----|--------------0-------|

Eb-----3-----------------|----------------------|
Ab-----------------------|---0------------------|
Db--------0----0---------|-----2---2------------|
Gb-----------0---0-----0-|-------2---2------2---|
Bb-----3-------------3---|---2------------2-----|
eb-----------------0-----|--------------0-------|

Eb-----------------------|-------------|
Ab-----2-----------------|---0---------|
Db--------4----4---------|---2---------|
Gb-----------4---4-----4-|---2---------|
Bb-----3-------------3---|---2---------|
eb-----------------0-----|-------------|

Guitar 2:


Eb-------------------|--------------------|------------------|--------------------|
Ab-------------------|--------------------|------------------|--------------------|
Db-------------------|--------------------|------------------|--------------------|
Gb---7----7----------|--7-----9---9-------|--7---------------|---7----------------|
Bb---7----5h7--------|--5-----10--8-------|--7---------------|---5----------------|
eb-------------------|--------------------|------------------|--------------------|

Eb-------------------|------------------|
Ab-------------------|------------------|
Db-------------------|------------------|
Gb---7----7----------|--7---7-----------|
Bb---7p5--7----------|--5---7-----------|
eb-------------------|------------------|

Chorus:

Guitar 1:

Eb---------------------|-3------------------|--0------------------|-2----------------|
Ab-----2---------------|--------------------|---------------------|------------------|
Db-------4---4---------|---0---0------------|-----2---2-----------|---4---4----------|
Gb---------4---4-----4-|-----0---0------0---|-------0---0------0--|-----3---3-----2--|
Bb-----2-----------2---|-3------------3-----|--0-------------0----|-2-----------2----|
eb---------------0-----|------------0-------|--------------0------|-----------2------|


Eb---------------------|--------------------|--0------------------|-2----------------|
Ab-----2---------------|--------------------|---------------------|------------------|
Db-------4---4---------|-0------------------|-----2---2-----------|---4---4----------|
Gb---------4---4-----4-|---2---2--------2---|-------0---0------0--|-----3---4-----2--|
Bb-----2-----------2---|-3---3---3----3-----|--0-------------0----|-2-----------2----|
eb---------------0-----|------------0-------|--------------0------|-----------2------|

End:


|I'm not sure if it's right but he plays something like that---|that's right|

Eb------------------------|-----------------|------------------|----------------|
Ab------------------------|-----------------|------------------|----------------|
Db------0---0---------0---|-----------------|-0-------0--------|----------------|
Gb--------0---0-----0---0-|-----0----0----0-|---0---0---0------|--4-------------|
Bb----------------3-------|---3----3----3---|-----3-------3----|-----3----------|
eb------------------------|-0----0----0-----|---------------2--|--------5-------|
Tap to rate this tab
# A B C D E F G H I J K L M N O P Q R S T U V W X Y Z