Song name
# A B C D E F G H I J K L M N O P Q R S T U V W X Y Z

Dir En Grey - Glass Skin tab

                ***I TAKE NO CREDIT FOR THIS ONLY THIS DUDE ON YOUTUBE I SAW HIS VIDEO 
MATCHED UP THE NOTES***


Intro notes


|---------------------------|
|---------------------------|
|-------0~----------3~------|
|-----4~--------------0~----|
|---5~------------4~--------|
|---------------------------|


|---------------------------|
|---------------------------|
|---4^(5)-------------------|
|---------------------------|
|---------------------------|
|---------------------------| 2x

|----2~---------------------|
|----3~---------------------|
|----2~---------------------|
|----0~---------------------|
|----0~---------------------|
|---------------------------|

High Notes Riff
|----12------14-14^(15)---14--14/--12/--17--/14--14--14^(15)--14/12-|
|--------12---------------------------------------------------------|
|-------------------------------------------------------------------|
|-------------------------------------------------------------------|
|-------------------------------------------------------------------|
|-------------------------------------------------------------------|X2

Chords (not 100% right but from what i heard and saw it looked right)
|--0----0----0---------------|---0---0---0---2---------------------|
|--0----0----0----3---3--3---|---0---0---0---3---------------------|
|--4----2----0---------------|---4---2---4---2---------------------|
|--2----4----4---------------|---2---4---3---0---------------------|
|----------------------------|-------------------------------------|
|----------------------------|-------------------------------------|
Tap to rate this tab
# A B C D E F G H I J K L M N O P Q R S T U V W X Y Z