Song name
# A B C D E F G H I J K L M N O P Q R S T U V W X Y Z

Dir En Grey - Jealous tab

---------------------------------------------------------------------------
                           JEALOUS - Dir En Grey
---------------------------------------------------------------------------
Tabbed by: Matheus

Tuning: e|B|G|D|A|E

e-|-----------------------------------------------------------------------|
B-|-----------------------------------------------------------------------|
G-|-----1-2-1-----2-4b----4b-4b-4b-4-2-4-2-1------1/2-1---2---------------|
D-|-2-4-------2-4----------------------------2----------2-----------------|
A-|-----------------------------------------------------------------------|
E-|-----------------------------------------------------------------------|

e-|----------------------------------------------12-----------------------|
B-|-----10-9-----9-10---12-10-9--10\9/10--12\10\9--10\9-12\10\9-12-\10-\9-|
G-|-11-------11-----------------------------------------------------------|
D-|-----------------------------------------------------------------------|
A-|-----------------------------------------------------------------------|
E-|-----------------------------------------------------------------------|

e-|-------16--17--16b--14--17-16b--14---19-17-16-17-----------------------|
B-|-/14-------------------------------------------------------------------|
G-|-----------------------------------------------------------------------|
D-|-----------------------------------------------------------------------|
A-|-----------------------------------------------------------------------|
E-|-----------------------------------------------------------------------|

e-|-------16-17---16-17--16-17-17b-16-17-16-17b-16/17---------------------|
B-|-----14------15--------------------------------------------------------|
G-|-----------------------------------------------------------------------|
D-|-----------------------------------------------------------------------|
A-|-----------------------------------------------------------------------|
E-|-----------------------------------------------------------------------|

| /  slide up
| \  slide down
| b  bend

===========================================================================
Tap to rate this tab
 
# A B C D E F G H I J K L M N O P Q R S T U V W X Y Z