Song name
# A B C D E F G H I J K L M N O P Q R S T U V W X Y Z

Dir En Grey - Lie Buried With A Vengeance tab

SONG: Lie Buried with a Vengeance
Artist: Dir en Grey
Tabbed by: Bernie Corrigan


(This is tabbed rather akwardly but play this along with the song and it'll all make sense.


TUNING: AEADF#B


------------------------------|
------------------------------|
------------------------------|
------------------------------|
--16/----3--2-----0-----0--2--|
--16/----------4-----4--------|

-------------------------|
-------------------------|
-------------------------|
--4-----4-----4-----4-5--|
--4-----4-----4-----4-5--|
--4-----4-----4-----4-5--|


-----------------------------|
-----------------------------|
-----------------------------|
--4-----4--------------------|
--4-----4-------3-2---0--2---|
--4-----4-----4-----4---4----|


guitar 1                     guitar 2

-------------------------[-----------------------------|
-------------------------[-----------------------------|
-------------------------[-----------------4-----------|
--4-----4-----4-----4-5--[--4-4---4-2---4----------5---|
--4-----4-----4-----4-5--[--4-----4-----4--------------|
--4-----4-----4-----4-5--[--4-----4-----4-----4--------|


guitar 1                          guitar 2
------------------------------[---------------------------------|
------------------------------[---------------------------------|
------------------------------[---------------------------------|
-4-----4-----4---4---444-4-4-4[-4--4---4--2---4---4---444-4-4-4-|
-4-----4-----4---4---444-4-4-4[-4------4------4---4---444-4-4-4-|
-4-----4-----4---4---444-4-4-4[-4------4------4---4---444-4-4-4-|

x2

------------------------------|
------------------------------|
------------------------------|
-4-4--4-4-4-4-5---------------|
-4-4--4-4-4-4-5---------------|
-4-4--4-4-4-4-5---------------|

After more research, I'll post the rest. Or if someone beats me to it, even 
better. Happy playing!
Tap to rate this tab
# A B C D E F G H I J K L M N O P Q R S T U V W X Y Z