Song name
# A B C D E F G H I J K L M N O P Q R S T U V W X Y Z

Dir En Grey - Red Em tab

SONG : Red...[em]
BAND : Dir en Grey
ALBUM : Vulgar

 * Intro *
|----------------------------------------|
|----------------------------------------|
|----------------------------------------|
|--7~-7--x-x-10-x-10-x-8~-8-x-x-x-11-11--|
|--5~-5--x-x--8-x--8-x-5~-5-x-x-x-8--8---|
|--------x-x----x----x------x-x-x--------|

|--------------------------------------|
|--------------------------------------|
|--------------------------------------|
|--7~-7--x-x-10-x-10-x-8~-8-x-x-x-5-5--|
|--5~-5--x-x--8-x--8-x-5~-5-x-x-x-3-3--|
|--------x-x----x----x------x-x-x------|

 * Verse *
 Figure out strumming for urself... its quite easy

|------------------------------|
|------------------------------|
|------------------------------|
|--0-0-0--3-3-3--8-8-8--7-7-7--|
|--0-0-0--3-3-3--8-8-8--7-7-7--|
|--0-0-0--3-3-3--8-8-8--7-7-7--|

|---------------------------------|
|---------------------------------|
|---------------------------------|
|--0-0-0--3-3-3--8-8-8--10-10-10--|
|--0-0-0--3-3-3--8-8-8--10-10-10--|
|--0-0-0--3-3-3--8-8-8--10-10-10--|

^^After this you just repeat the intro then do the chorus again
Listen to the song to figure it out 

There ya go all... its not the full song but is a start
Tap to rate this tab
 
# A B C D E F G H I J K L M N O P Q R S T U V W X Y Z