Song name
# A B C D E F G H I J K L M N O P Q R S T U V W X Y Z

Dir En Grey - Ugly tab

Dir En Grey :: Ugly    
Album: Six Ugly

Tabbed by: Adriano
e-mail: adrianogoldmund@hotmail.it 

I couldn't find exact chord transcriptions on the net, so here they are.
Keeping Rock'n'Roll alive.

      Intro (tremolo + chorus)                      
                   
                  
E||---------------------------|--------------------|
B||--12-----------------------|---9----------------|
G||--10-----------------------|--10----------------|
D||---9-----------------------|--12----------------|
A||---------------------------|--------------------|
D||---------------------------|--------------------|


   Verse (let ring through)                                    
                                      
-----------------------------------------|--------------------|
--12--------------------------12------9--|--12----------------|
--10------------------------------10-----|--10----------------|
---9-----------------------9-------------|---9----------------|
-----------------------------------------|--------------------|
-----------------------------------------|--------------------|


  Chorus                                                

---------------------------------------------------------------|
---------------------------------------------------------------|
---------------------------------------------------------------|
---------------------------------------------------------------|
--3--2-----0--3--2-----0--3--2----7-----6p0----3--2---0---3--2-|
--3--2-----0--3--2-----0--3--2----7-----6p0----3--2---0---3--2-|
Tap to rate this tab
# A B C D E F G H I J K L M N O P Q R S T U V W X Y Z