Song name
# A B C D E F G H I J K L M N O P Q R S T U V W X Y Z

Dir En Grey - Red Em tab

Riff #1: (Intro)

|--------------------------------------|
|--------------------------------------|
|--------------------------------------|
|7--7-xxxx-10-x-10---------------10-10-|
|5--5-xxxx--8-x--8---8---8--xxxx--7--7-|
|-------------------10--10--xxxx-------|

|--------------------------------------|
|--------------------------------------|
|--------------------------------------|
|7--7-xxxx-10-x-10----------------5--5-|
|5--5-xxxx--8-x--8---8---8--xxxx--3--3-|
|-------------------10--10--xxxx-------|

(Repeat twice)

|--------------------------------------|
|--------------------------------------|
|--------------------------------------|
|7--7-xxxx-10-x-10---------------10-10-|
|5--5-xxxx--8-x--8---8---8--xxxx--7--7-|
|-------------------10--10--xxxx-------|

|--------------------------------------|
|--------------------------------------|
|--------------------------------------|
|7--7-xxxx-10-x-10---------------------|
|5--5-xxxx--8-x--8---8---8--xxxxxxxxxxx|
|-------------------10--10--xxxxxxxxxxx|

Tap to rate this tab
# A B C D E F G H I J K L M N O P Q R S T U V W X Y Z