Song name
# A B C D E F G H I J K L M N O P Q R S T U V W X Y Z

Dir En Grey - The Iii D Empire tab

==============================
The IIId Empire by Dir en Grey
Dropped C (C G C F A D)
==============================

By Osiris

[Riff 1a]
|---------------8------------7-|---------------8------------12-|
|-5-5-5-5-8-5-5----5-5-5-8-5---|-5-5-5-5-8-5-5----5-5-5-8-5----|
|------------------------------|-------------------------------|
|------------------------------|-------------------------------|
|------------------------------|-------------------------------|
|------------------------------|-------------------------------|

|---------------8------------7-|---------------8----------|
|-5-5-5-5-8-5-5----5-5-5-8-5---|-5-5-5-5-8-5-5----5-8-5-3-|
|------------------------------|--------------------------|
|------------------------------|--------------------------|
|------------------------------|--------------------------|
|------------------------------|--------------------------|

[Riff 1b]
|---------------8------------7-|
|-5-5-5-5-8-5-5----5-5-5-8-5---|
|------------------------------|
|------------------------------|
|------------------------------|
|------------------------------|

[Riff 1c]
|---------------8------------7-|---------------8------------12-|
|-5-5-5-5-8-5-5----5-5-5-8-5---|-5-5-5-5-8-5-5----5-5-5-8-5----|
|------------------------------|-------------------------------|
|------------------------------|-------------------------------|
|------------------------------|-------------------------------|
|------------------------------|-------------------------------|

|---------------8------------7-|---------------8-|
|-5-5-5-5-8-5-5----5-5-5-8-5---|-5-5-5-5-8-5-5---|
|------------------------------|-----------------|
|------------------------------|-----------------|
|------------------------------|-----------------|
|------------------------------|-----------------|

[Riff 2a]
|--------------------------|
|--------------------------|
|--------------------------|
|-0--0--1p0---0--0-0-0-1p0-|
|-0--0--1p0---0--0-0-0-1p0-|
|-0--0--1p0---0--0-0-0-1p0-|

[Riff 2b]         _________ __________
                 |1,2,3    |4
|--------------------------|---------|
|--------------------------|---------|
|--------------------------|---------|
|-0--0--1p0---0--0-0-0-1p0-|---------|
|-0--0--1p0---0--0-0-0-1p0-|-3--2--1-|
|-0--0--1p0---0--0-0-0-1p0-|-3--2--1-| x4
                             .  .  .

[Riff 2c]         _________ __________
                 |1-7      |8
|--------------------------|---------|
|--------------------------|---------|
|--------------------------|---------|
|-0--0--1p0---0--0-0-0-1p0-|---------|
|-0--0--1p0---0--0-0-0-1p0-|-3--2--1-|
|-0--0--1p0---0--0-0-0-1p0-|-3--2--1-| x8
                             .  .  .

[Riff 3]
|-----------------------|
|-----------------------|
|-----------------------|
|-0--0----0--0----------|
|-0--0----0--0----x---x-|
|-0--0----0--0----x---x-|

[Riff 4]                                           ____________ _________
                                                  |1,2,3       |4
|---------------8------------7-|---------------8------------12-|---------|
|-5-5-5-5-8-5-5----5-5-5-8-5---|-5-5-5-5-8-5-5----5-5-5-8-5----|---------|
|------------------------------|-------------------------------|---------|
|------------------------------|-------------------------------|---------|
|------------------------------|-------------------------------|-3--2--1-|
|------------------------------|-------------------------------|-3--2--1-|
|                                                                .  .  .
|------------------------------|-------------------------------|---------|
|------------------------------|-------------------------------|---------|
|------------------------------|-------------------------------|---------|
|-0--0-------------------------|-0--0--------------------------|---------|
|-0--0-------------------------|-0--0---------------x---x------|-3--2--1-|
|-0--0-------------------------|-0--0---------------x---x------|-3--2--1-| x4
                                                                 .  .  .
[Riff 5]
|---------------------------------|
|---------------------------------|
|---------------------------------|
|-1-2-3-4-1-2-3-4-1-3-1-2-4-------|
|-1-2-3-4-1-2-3-4-1-3-1-2-4-3-2-1-|
|-1-2-3-4-1-2-3-4-1-3-1-2-4-3-2-1-|
                            . . .

[Riff 6]
|----------------|
|----------------|
|----------------|
|-2---------2--2-|
|-2----x--x-2--2-|
|-2----x--x-2--2-|

[Riff 7]    __________ ___________
           |1,2,3     |4
|---------------------|-----------|
|---------------------|-----------|
|---------------------|-----------|
|-0--------0-0--------|-----------|
|-0---1--2-0-0---1--2-|-1-3--2--1-|
|-0---1--2-0-0---1--2-|-1-3--2--1-| x4
      .  .       .  .     .  .  .

[Riff 8]
|-------------------|
|-------------------|
|-------------------|
|-2-3-4-1-2-3-4-4-0-|
|-2-3-4-1-2-3-4-4-0-|
|-2-3-4-1-2-3-4-4-0-|

Structure:
[Riff 1a]
[Riff 2a] x8
[Riff 1b]
[Riff 3] x4
[Riff 2a] x4
[Riff 4]
[Riff 5] x4
[Riff 2a] x8
[Riff 1c]
[Riff 6]
[Riff 2b]
[Riff 7]
[Riff 5]
[Riff 2a]
[Riff 2c]
[Riff 8]
Tap to rate this tab
 
# A B C D E F G H I J K L M N O P Q R S T U V W X Y Z