Song name
# A B C D E F G H I J K L M N O P Q R S T U V W X Y Z

Dir En Grey - Byo Shin tab

Help us improve GuitareTab! Take a short survey!
Dir en grey - Byo[ ]Shin

My first tab. Dunno how accurate this is, it sounds fairly accurate to me. I'm just not 
on the miscellaneous small guitar additions, so I wont add those.
[for the main/beginning part I kinda use hammer ons, to move fast enough..just a tip I guess.]

/ - slide up
\ - slide down
x - mute

E|-------------------------------------------|
b|-------------------------------------------|
g|-------------------------------------------|
d|-------------------------------------------|
a|---------0-6-5-0-3-0-0--2--2-2-------------|
D|---/7\---0-6-5-0-3-0-0--2--2-2-------------| [repeat 12x, on the 9th time is a small 
guitar addition]

E|-------------------------------------------|
b|-------------------------------------------|
g|-------------------------------------------|
d|-------------------------------------------|
a|1-0--0-0-1-0-1-1-0--0-0-1-0-1-1-0----------|
D|1-0--0-0-1-0-1-1-0--0-0-1-0-1-1-0----------|
       x x            x x

E|-------------------------------------------|
b|-------------------------------------------|
g|-------------------------------------------|
d|-------------------------------------------|
a|0-0-1-0-1-1-0-0--2-1-0-----1-0-------------|
D|0-0-1-0-1-1-0-0--------3-0-1-0-------------|
  x x

E|-------------------------------------------|
b|-------------------------------------------|
g|-------------------------------------------|
d|-------------------------------------------|
a|0-0-1-0-1-1-0------------------------------|
D|0-0-1-0-1-1-0------------------------------| [repeat 6x]
  x x

E|-------------------------------------------|
b|-------------------------------------------|
g|-------------------------------------------|
d|-------------------------------------------|
a|0-0-1-0-1-1-0-0--2-1-0-----1-0-------------|
D|0-0-1-0-1-1-0-0--------3-0-1-0-------------|
  x x

E|-------------------------------------------|
b|-------------------------------------------|
g|-------------------------------------------|
d|-------------------------------------------|
a|0-0-0-0--3-3-3-3--2-2-2-2--1-1-1-1---------|
D|0-0-0-0--3-3-3-3--2-2-2-2--1-1-1-1---------|
    x x x    x x x    x x x    x x x
[Genocide...and Deadborn..]

E|-------------------------------------------|
b|-------------------------------------------|
g|-------------------------------------------|
d|-------------------------------------------|
a|0-0-0-0--3-3-3-3--2-2-2-2--1-1-1-1---------|
D|0-0-0-0--3-3-3-3--2-2-2-2--1-1-1-1---------|
    x x x    x x x    x x x    x x x
[Born...and Dead..]

E|-------------------------------------------|
b|-------------------------------------------|
g|-------------------------------------------|
d|-------------------------------------------|
a|0---6--5--4--0--6--5--4--------------------|
D|0---6--5--4--0--6--5--4--------------------|

E|-------------------------------------------|
b|-------------------------------------------|
g|-------------------------------------------|
d|-------------------------------------------|
a|0-0-0-0--3-3-3-3--2-2-2-2--1-1-1-1---------|
D|0-0-0-0--3-3-3-3--2-2-2-2--1-1-1-1---------|
    x x x    x x x    x x x    x x x
[Genocide...and Deadborn..]

E|-------------------------------------------|
b|-------------------------------------------|
g|-------------------------------------------|
d|-------------------------------------------|
a|0-0-0-0--3-3-3-3--2-2-2-2--1-1-1-1---------|
D|0-0-0-0--3-3-3-3--2-2-2-2--1-1-1-1---------|
    x x x    x x x    x x x    x x x
[Born...and Dead..]

E|-------------------------------------------|
b|-------------------------------------------|
g|-------------------------------------------|
d|-------------------------------------------|
a|0---6--5--4--0--6--5--4--------------------|
D|0---6--5--4--0--6--5--4--------------------|
                               [Dead]

E|-------------------------------------------|
b|-------------------------------------------|
g|-------------------------------------------|
d|-------------------------------------------|
a|1-0--0-0-1-0-1-1-0--0-0-1-0-1-1-0----------|
D|1-0--0-0-1-0-1-1-0--0-0-1-0-1-1-0----------|
       x x            x x

E|-------------------------------------------|
b|-------------------------------------------|
g|-------------------------------------------|
d|-------------------------------------------|
a|0-0-1-0-1-1-0------------------------------|
D|0-0-1-0-1-1-0------------------------------| [repeat 3x]
  x x

E|-------------------------------------------|
b|-------------------------------------------|
g|-------------------------------------------|
d|-------------------------------------------|
a|0-0-1-0-1-1-0-0--2-1-0-----1-0-------------|
D|0-0-1-0-1-1-0-0--------3-0-1-0-------------|
  x x

E|-------------------------------------------|
b|-------------------------------------------|
g|-------------------------------------------|
d|-------------------------------------------|
a|0-0-0-0--3-3-3-3--2-2-2-2--1-1-1-1---------|
D|0-0-0-0--3-3-3-3--2-2-2-2--1-1-1-1---------|
    x x x    x x x    x x x    x x x
[Genocide...and Deadborn..]

E|-------------------------------------------|
b|-------------------------------------------|
g|-------------------------------------------|
d|-------------------------------------------|
a|0-0-0-0--3-3-3-3--2-2-2-2--1-1-1-1---------|
D|0-0-0-0--3-3-3-3--2-2-2-2--1-1-1-1---------|
    x x x    x x x    x x x    x x x
[Born...and Dead..]

E|-------------------------------------------|
b|-------------------------------------------|
g|-------------------------------------------|
d|-------------------------------------------|
a|0---6--5--4--0--6--5--4--------------------|
D|0---6--5--4--0--6--5--4--------------------|
                             [...Dead] [1:32]

E|-------------------------------------------|
b|-------------------------------------------|
g|-------------------------------------------|
d|-------------------------------------------|
a|0-0-0-0--3-3-3-3--2-2-2-2--1-1-1-1---------|
D|0-0-0-0--3-3-3-3--2-2-2-2--1-1-1-1---------|
    x x x    x x x    x x x    x x x
[Genocide...and Deadborn..]

E|-------------------------------------------|
b|-------------------------------------------|
g|-------------------------------------------|
d|-------------------------------------------|
a|0-0-0-0--3-3-3-3--2-2-2-2--1-1-1-1---------|
D|0-0-0-0--3-3-3-3--2-2-2-2--1-1-1-1---------|
    x x x    x x x    x x x    x x x
[Born...and Dead..]

E|-------------------------------------------|
b|-------------------------------------------|
g|-------------------------------------------|
d|-------------------------------------------|
a|0---6--5--4--0--6--5--4--------------------|
D|0---6--5--4--0--6--5--4--------------------|
                              [...Dead] [1:43]

E|-------------------------------------------|
b|-------------------------------------------|
g|-------------------------------------------|
d|-------------------------------------------|
a|1-0--0-0-1-0-1-1-0--0-0-1-0-1-1-0----------|
D|1-0--0-0-1-0-1-1-0--0-0-1-0-1-1-0----------|
       x x            x x

E|-------------------------------------------|
b|-------------------------------------------|
g|-------------------------------------------|
d|-------------------------------------------|
a|0-0-1-0-1-1-0-0--2-1-0-----1-0-------------|
D|0-0-1-0-1-1-0-0--------3-0-1-0-------------|
  x x

E|-------------------------------------------|
b|-------------------------------------------|
g|-------------------------------------------|
d|-------------------------------------------|
a|0-0-1-0-1-1-0------------------------------|
D|0-0-1-0-1-1-0------------------------------| [repeat 2x]
  x x

E|-------------------------------------------|
b|-------------------------------------------|
g|-------------------------------------------|
d|-------------------------------------------|
a|0-0-1-0-1-0-------10-11--------------------|
D|0-0-1-0-1-0-------10-11--------------------|
  x x

E|-------------------------------------------|
b|-------------------------------------------|
g|-------------------------------------------|
d|-------------------------------------------|
a|-0--0-0-0-0-0--6--6-6-6-6-6--5--5-5-5-5-5--|
D|-0--0-0-0-0-0--6--6-6-6-6-6--5--5-5-5-5-5--|
      x x x x x     x x x x x     x x x x x
[Genocide... Give Rise to Dead]

E|-------------------------------------------|
b|-------------------------------------------|
g|-------------------------------------------|
d|-------------------------------------------|
a|3--3-3-3-3-3-------------------------------|
D|3--3-3-3-3-3-------------------------------|
     x x x x x

[Play intro again]

E|-------------------------------------------|
b|-------------------------------------------|
g|-------------------------------------------|
d|-------------------------------------------|
a|------2-1-0-----------2-1-0------0-5--0-6--|
D|0-0-0-------3-1-0-0-0-------3-1--0-5--0-6--| [repeat 4x]
 [2:43]

If you can play all of this, I guarantee the rest will be a piece of cake to figure 
It repeats a lot.
Related for Byo Shin tab