Song name
# A B C D E F G H I J K L M N O P Q R S T U V W X Y Z

Dir En Grey - Merciless Cult tab

Give credit to 
LiveJournal: Knife_prty

Kaoru Tuning - C#,G#,C#,F#,A#,D#
DIE Tuning - C#,G#,C#,F#,A#,D#

Bend - ^
Palm Mute - PM

Kaoru + Die - Main RIFF
D#|-----------------------------------------------|
A#|-----------------------------------------------|
F#|-----------------------------------------------|
C#|-----------------------------------------------| x6
G#|00----00--3-00----33--1-00----00--3-00----33--1|
C#|00----00--3-00----33--1-00----00--3-00----33--1|
                     ^                       ^

Kaoru - RIFF 1
D#|-----------------------------------------------|
A#|-----------------------------------------------|
F#|-----------------------------------------------|
C#|-----------------------------------------------| x2
G#|00-----------00---33--1-00-----------00---33--1|
C#|00--5--0--3--00---33--1-00--5--0--3--00---33--1|
       ^     ^                 ^     ^

Die - RIFF 1
D#|-----------------------------------------------|
A#|-----------------------------------------------|
F#|-----------------------------------------------|
C#|-----------------------------------------------| x2
G#|00-----------00---33--1-00-----------00---33--1|
C#|00-----------00---33--1-00-----------00---33--1|

Kaoru - Chorus 1 RIFF
D#|-----------------------------------------------------|
A#|-----------------------------------------------------|
F#|-----------------------------------------------------|
C#|0---3----8----2-2--0---5----8------------------------|
G#|0---3----5----3-3--0---3----5----7---3--3-3-3-3-1-1-1|
C#|0---3----5----3-3--0---3----5----7---3--3-3-3-3-1-1-1|
                                                   X X X

Die - Chorus 1 RIFF
D#|-----------------------------------------------------|
A#|-----------------------------------------------------|
F#|-----------------------------------------------------|
C#|-----------------------------------------------------|
G#|0---3----5----3----0---3----5----7---3--3-3-3-3-1-1-1|
C#|0---3----5----3----0---3----5----7---3--3-3-3-3-1-1-1|
                                                   X X X

Kaoru - Break
D#|0----------------------------0----------------0--------------------------------------|
A#|----------3--------------------------3------------------3-----------------3----------|
F#|-----5----------2----5----------5------------------5----------2----5-----------0----2|
C#|-------------------------------------------------------------------------------------|
G#|-------------------------------------------------------------------------------------|
C#|-------------------------------------------------------------------------------------|

Die - Break
D#|12--------10----------------12------10--------12--------10----------------10---------|
A#|-----13--------10----13---------13------------|-----13--------10----13-------------10|
F#|-------------------------------------------------------------------------------12----|
C#|-------------------------------------------------------------------------------------|
G#|-------------------------------------------------------------------------------------|
C#|-------------------------------------------------------------------------------------|

Kaoru - Repeat RIFF 1 x2
Die   - Repeat RIFF 1 x2

Kaoru - Chorus 2
D#|-------------------------------------------------------------------------------------|
A#|-------------------------------------------------------------------------------------|
F#|-------------------------------------------------------------------------------------|
C#|0---3----8----2-2--0---3----8----2-2--0---3----8----2-2--0---3----8------------------|
G#|0---3----5----3-3--0---3----5----3-3--0---3----5----3-3--0---3----5----7-7--1--1-1-1-|
C#|0---3----5----3-3--0---3----5----3-3--0---3----5----3-3--0---3----5----7-7--1--1-1-1-|

Die - Chorus 2
D#|-------------------------------------------------------------------------------------|
A#|-------------------------------------------------------------------------------------|
F#|-------------------------------------------------------------------------------------|
C#|-------------------------------------------------------------------------------------|
G#|0---3----5----3-3--0---3----5----3-3--0---3----5----3-3--0---3----5----7-7--1--1-1-1-|
C#|0---3----5----3-3--0---3----5----3-3--0---3----5----3-3--0---3----5----7-7--1--1-1-1-|

Kaoru - Repeat Main RIFF x2
Die   - Repeat Main RIFF x2
Tap to rate this tab
 
# A B C D E F G H I J K L M N O P Q R S T U V W X Y Z