Guitaretab - guitar tabs
Song name
# A B C D E F G H I J K L M N O P Q R S T U V W X Y Z

Dir En Grey - Obscure tab

Artist: Dir En Grey
Song: Obscure
Tuning: 
1=B  4=A
2=F# 5=E
3=D  6=A
Guitar 1=Lead
Guitar 2=Rhythm

Intro:
Guitar 2:
|-----------------|---------------------|-----------------------------------|
|---repeat-3x-----|---repeat-3x---------|-----------------------------------|
|-o-------------o-|-o-------------4-3-o-|-----------------------------------|
|--1/2-1/2--1----|--1/2-1/2--1--2-1---|-----------------------------------|
|-o1/2--1/2--1--o-|-o1/2-1/2--1------o-|-----------------------------------|
|--1/2-1/2--1----|--1/2-1/2--1--------|-----------------------------------|

Guitar 1
|-------22~~~--------20~~~~-----------------------------------------------|
|-------------------------------------------------------------------------|
|-19-20----------19----------19-20----------------------------------------|
|-------------------------------------------------------------------------|
|------------------------------------------------------------------------ |
|-------------------------------------------------------------------------|

Riff A:
Both Guitars
|-----------------------|
|-----------------------|
|-----------------------|
|--2\1-2\1-2\1-2\1--|x4
|--2\1-2\1-2\1-2\1--|
|--2\1-2\1-2\1-2\1--|

Riff B:
Both Guitars
|---------------------|
|---------------------|
|-----(7)---------(7)-|
|-1/2-----2-1/2------|x3
|-1/2-(5)-2-1/2--(5)-|
|-1/2-----2-1/2------|
()= Guitar 1 only

Riff C:
Guitar 1
|-22~~~~~~~~~~--20~~~~~~~~~~~~-------22~~~~~----20~~~~~~---------22~~~~---|
|-------------------------------------------------------------------------|
|------------------------------19-20-----------------------19-------------|
|-------------------------------------------------------------------------|
|-------------------------------------------------------------------------|
|-------------------------------------------------------------------------|



Guitar 2
|-------------------------------------|   |---------------------------------|
|-------------------------------------|   |---------------------------------|
|-------------------------------------|   |---------------------------------|
|-1~~~~-1~~~~~---3~~--3~~--4~~--3~~---|x6 |-1--1--1-------------------------|
|-------------------------------------|   |-1--1--1-------------------------|
|-------------------------------------|   |-1--1--1-------------------------|
Riff B
[ Tab from: http://www.guitaretab.com/d/dir-en-grey/84648.html ]
Refrain:
Guitar 1
|-------------------------------------|
|-------------------------------------|
|-------------------------------------|
|-6-6-6-6--6-6-6-6--6-6-6-6--6-6-6-6--|x3
|-------------------------------------|
|-------------------------------------|

|-------------------------------------|
|-------------------------------------|
|-------------------------------------|
|-9-9-9-9--9-9-9-9--9-9-9-9--9-9-9-9--|x2
|-------------------------------------|
|-------------------------------------|

|--------------------------------------------|
|--------------------------------------------|
|--------------------------------------------|
|-9-9-9-9-9-9-11-11-11-11-11-11-11-11-11-11--|
|--------------------------------------------|
|--------------------------------------------|
Guitar 2
|-------------------------------------------------------------------------|
|-------------------------------------------------------------------------|
|-------------------------------------------------------------------------|
|-6-6-6-6--6-6-6-6--4-4-4-4--4-4-4-4--2-2-2-2--2-2-2-2--4-4-4-4--4-4-4-4--|
|-6-6-6-6--6-6-6-6--4-4-4-4--4-4-4-4--2-2-2-2--2-2-2-2--4-4-4-4--4-4-4-4--|
|-6-6-6-6--6-6-6-6--4-4-4-4--4-4-4-4--2-2-2-2--2-2-2-2--4-4-4-4--4-4-4-4--|
Intro
Riff A
Riff B
Refrain (x2)
Refrain Variation:
Guitar 1
|-------------------------------------|
|-------------------------------------|
|-------------------------------------|
|-6-6-6-6--6-6-6-6--6-6-6-6--6-6-6-6--|x3
|-------------------------------------|
|-------------------------------------|

|-------------------------------------|
|-------------------------------------|
|-------------------------------------|
|-9-9-9-9--9-9-9-9--9-9-9-9--9-9-9-9--|x2
|-------------------------------------|
|-------------------------------------|

|-------------------------------------------------------------------------|
|-------------------------------------------------------------------------|
|-------------------------------------------------------------------------|
|-11-11-11-11--11-11-11-11--11-11-11-11--11-11-11-11--8-8-8-8--8-8-8-8----|
|-------------------------------------------------------------------------|
|-------------------------------------------------------------------------|

|------------------------------|
|------------------------------|
|------------------------------|
|-9-9-9-9--9-9-9-9-------------|
|------------------------------|
|------------------------------|
Related for Obscure tab