Song name
# A B C D E F G H I J K L M N O P Q R S T U V W X Y Z

Dir En Grey - Shokubeni tab

. = Palm Mute
^ = Bend String downwards


E|--------------|
G|--------------|
B|--------------|  
D|--------------|  x1
A|--------------|
E|0-0-1-5-1-1-0-|
      ^
  . . . . . . 

Lead Only:
E|-------------------------------------|
G|-------------------------------------|
B|-------------------------------------|
D|-------------------------------------|  x3
A|-------------------------------------|
E|0-0-1-5-1-1-0-0-1-3-1-0-0-0-1-5-1-1-0|
        ^   
  . . . . . . . . . . . . . . . . . . . 

Both Guitars:
E|------------------------|
G|------------------------|
B|------------------------|
D|0-0-1-5-1-1-0-0-1-3-1-0-|  x4
A|0-0-1-5-1-1-0-0-1-3-1-0-|
E|0-0-1-5-1-1-0-0-1-3-1-0-|
        ^
Singing begins:
E|--------------------------------------|
G|--------------------------------------|
B|--------------------------------------|
D|0-0-1-5-1-1-0-0-1-3-1-0-0-0-1-5-1-1-0-|  x1
A|0-0-1-5-1-1-0-0-1-3-1-0-0-0-1-5-1-1-0-|
E|0-0-1-5-1-1-0-0-1-3-1-0-0-0-1-5-1-1-0-|
        ^   
  . . . . . . . . . . . . . . . . . . . 
Tap to rate this tab
 
# A B C D E F G H I J K L M N O P Q R S T U V W X Y Z