Guitaretab - guitar tabs
Song name
# A B C D E F G H I J K L M N O P Q R S T U V W X Y Z

Dire Straits - What It Is tab

WHAT IT IS by DIRE STRAITS
Tabbed out by JAKOB JōRGENSEN, 15 years, from Denmark.


Well, this is it (I think). I learned a lot from last time I
up-loaded a tab. This time Iíve made the lines shorter, and I hope
it will do.  :D

IF THIS LOOKS LIKE SHIT WHILE YOUíRE READING IT

please contact me at jakojorger13@gmail.com. Then Iíll send a
proper tab to you.
I will be glad for some comments.  xD

Then I have some comments on how to play it.
Mark plays it with pure finger-picking, but thatíll be hard if
youíre not used to. But a pick can do as well.

The slide-up/down in line three is made incredibly fast, first time
I heard the song I didnít even hear it. This, and of course the
rest of the song, is played with Mark Knoflers unique tone and
elegance.

-------------------------------------------------------------------|
-------------------------------------------------------------------|
---9h11-11-11-11p9----9h11p9----9-11ó-9-9--------------------------|
-------------------11--------11------------------------------------|
-------------------------------------------------------------------|
-------------------------------------------------------------------|
[ Tab from: http://www.guitaretab.com/d/dire-straits/143775.html ]
-------------------------------------------------------------------|
-------------------------------------------------------------------|
---9h11-11-11-11p9----9h11p9---------------------------------------|
-------------------11--------11-9-----9----------------------------|
----------------------------------12-------------------------------|
-------------------------------------------------------------------|

-------------------------------------------------------------------|
--------------------------------10---------------------------------|
---9h11-11-11-11p9----9h11p9-------11/13\11-9----------------------|
-------------------11--------11------------------------------------|
-------------------------------------------------------------------|
-------------------------------------------------------------------|

-------------------------------------------------------------------|
-------------------------------------------------------------------|
---9h11-11-11-11p9----9h11p9---------------------------------------|
-------------------11--------11-9-7--9-----------------------------|
--------------------------------9-7--9-----------------------------|
-------------------------------------------------------------------|

Sorry I haven't tabbed out the rest of the song. Maybe Iíll do the
rest in near future :)

Please comment?!  If you like it Iíll definitely make more tabs.
Remember this is just the second, the first was ďSomething GoodĒ
by D:A:D and it got totally fucked up by UG. So this is really a
test.

Have a nice day :P
Related for What It Is tab