Song name
# A B C D E F G H I J K L M N O P Q R S T U V W X Y Z

Dire Straits - Ride Across The River tab

2:14
e-----------------------------------------------------------------|
B------------12b--12---12b----15-12----------12-------------------|
G----12-14--------------------------14-12-14----------------------|
D-14------14---------14-------------------------------------------|
A-14--------------------------------------------------------------|
E-----------------------------------------------------------------|

2:23
e-----------------------------------------------------------------|
B----------12p15-12----12------------------12-15-12-------12b-----|
G-12----12----------14----14-12----------12---------14-12---------|
D----14-------------------------14----14--------------------------|
A-----------------------------------------------------------------|
E-----------------------------------------------------------------|

2:29
e-----------------------------------------------------------------|
B-12h13-15-15-15b-12~--12h15-12-13~--12h13-15-15-13-12------------|
G-----------------------------------------------------------------|
D-----------------------------------------------------------------|
A-----------------------------------------------------------------|
E-----------------------------------------------------------------|

2:39
e---------12-------12-----------------------------------------------|
B------------15-13----15b----------------12-13p12------------12-----|
G-14b-12-------------------14p12-14--14----------14p12-)-12----14---|
D-------------------------------------------------------------------|
A-------------------------------------------------------------------|
E-------------------------------------------------------------------|

2:47
e--------------------------12b------------------------------------|
B------12--12-15-12------------12---------------------------------|
G-12h14-------------14-12---------14-12~--------------------------|
D-----------------------------------------------------------------|
A-----------------------------------------------------------------|
E-----------------------------------------------------------------|

2:53
e-12b--12-15b--12----12-------------------------------------------|
B-----------------15----15b----15-12----12-12b--------------------|
G------------------------------------14--------14-14-12-----------|
D------------------------------------------------------/14--------|
A-----------------------------------------------------------------|
E-----------------------------------------------------------------|

b=bend
h=hammer on
p=pull off
/=slide up or down
1:30=time from my cd
Tap to rate this tab
# A B C D E F G H I J K L M N O P Q R S T U V W X Y Z