Song name
# A B C D E F G H I J K L M N O P Q R S T U V W X Y Z

Dire Straits - One World tab

My first tab. Intro of One World.

h - hammer on
b - bend       b/ - bend up       b\ - bend down
p - pull off
r - release
s - slide      s/ - slide up      s\ - slide down


fingerpicking!

-----------------------------------------|
-----------------------------------------|
---9-11----11b/-11-9-----9---------------|
-----9-------------------12----11--------|
-9h10------------------------------------|
-----------------------------------------|

-----------------------------------------|
-----------------------------------------|
-----9-11----9h11------------------------|
----9---------------11-------------------|
--10-------------------------------------|
-----------------------------------------|

-----------------------------------------|
-11b/r----11h12--11h12-------------------|
---------------11-----11-12-11h12p11-s\9-|
-----------------------------------------|
-----------------------------------------|
-----------------------------------------|

-----------------------------------------|
-----------------------------------------|
-----------------------------------------|
-5p7h7----7s/9-7---5--7s/9---------------|
-----------------------------------------|
-----------------------------------------|
Tap to rate this tab
 
# A B C D E F G H I J K L M N O P Q R S T U V W X Y Z