Guitaretab - guitar tabs
Song name
# A B C D E F G H I J K L M N O P Q R S T U V W X Y Z

Dire Straits - Your Latest Trick tab

Tabbed an easy intro for novice players like myself, this is of course the sax part in the intro.

Standard Tuning

E-|--------------------------------------------2-x--2---------|
B-|-----4-5b4b---4-5-5s7b-5b4b------7-5b---2---2-x-2-2-4-2-0--|
G-|---6-------6----------------64b--------2---2-x------------|
D-|-6------------------------------------------4-x------------|
A-|--------------------------------------------4-x------------|
E-|--------------------------------------------2-x------------|
[ Tab from: http://www.guitaretab.com/d/dire-straits/183845.html ]
E-|-------------------------------------------------------------------|
B-|--------9-7-5-7-7s9s10-9b-7-5b-4-5-4----4-5-5s7b-5b4b------9b-5b---|
G-|-5----8------------------------------6b---------------64b --------|
D-|-------------------------------------------------------------------|
A-|-------------------------------------------------------------------|
E-|-------------------------------------------------------------------|

E-|----2-x--2-------------------------------------------------------||
B-|2---2-x-2-2-4-2-0-----------9-7-5-7-7s9s10-9b-7-5b-4-5-4---------||
G-|2---2-x-------------5-5--8---------------------------------------||
D-|----4-x----------------------------------------------------------||
A-|----4-x----------------------------------------------------------||
E-|----2-x----------------------------------------------------------||

Enjoy!
Related for Your Latest Trick tab