Song name
# A B C D E F G H I J K L M N O P Q R S T U V W X Y Z

Dire Straits - Your Latest Trick Live tab

e|-----------------------------------------------------|
B|-----4-5---4---------7-------------7-5//2------------|
G|---6---------6-6-8-9-8-9-8-6-4--4-------2------------|
D|-6-------6-------------------6-----------------------|
A|-----------------------------------------------------|
E|-----------------------------------------------------|

e|---------2-------------4-------4---5-4-------------|
B|-------2---2-4-0-----4---7-5-7---------7-5-7-------|
G|-------------4-1---5-------------5-----------------|
D|-4---------------6---------------------------------|
A|-4-------------------------------------------------|
E|-2-------------------------------------------------|

e|----------------------------------------------------|
B|--5---4----------7-----------7-5--2-----------------|
G|--------6--6-8-9-8-9-8-6-4--4-----2-----------------|
D|----6--------------------6--------------------------|
A|----------------------------------------------------|
E|----------------------------------------------------|

e|---------2-------------4-------4---5-4-------------|
B|-------2---2-4-0-----4---7-5-7---------7-5-7-------|
G|-------------4-1---5-------------5-----------------|
D|-4---------------6---------------------------------|
A|-4-------------------------------------------------|
E|-2-------------------------------------------------|
                               after
                               prehistoric garbage trucks..(1:17)
e|-~4----5----7--2--------~5--|----------------------|
B|------------------4--2------|----------------------|
G|----------------------------|------10h11-10--------|
D|----------------------------|------10----10--9-8-7-|
A|----------------------------|----------------------|
E|----------------------------|----------------------|


(1:20)
|----------------------------|
|----------------------------|
|---10-11-13-14/16-14-13--11-|
|----------------------------|
|----------------------------|
|----------------------------|
(1:23)
|-------|
|-------|
|-4h5-5-|
|-4---6-|
|-------|
|-------|
(1:29)
|------------------|
|-10-12-14-12-10~~-|
|------------------|
|------------------|
|------------------|
|------------------|
(1:33)
|----------------|
|----------------|
|----4h5-4---4-5-|
|-4h6-----6-4----|
|----------------|
|----------------|

(1:47)
|---------------|
|-4-6-8-12-10-9-|
|---------------|
|---------------|
|---------------|
|---------------|
(1:50).............and your latest trick
|------------|
|-----8-10-7-|
|-8-10-------|
|------------|
|------------|
|------------|

|-----------------------------------------------------|
|-----4-5---4---------7-------------7-5//2------------|
|---6---------6-6-8-9-8-9-8-6-4--4-------2------------|
|-6-------6-------------------6-----------------------|
|-----------------------------------------------------|
|-----------------------------------------------------|

|---------2-------------4-------4---5-4-------------|
|-------2---2-4-0-----4---7-5-7---------7-5-7-------|
|-------------4-1---5-------------5-----------------|
|-4---------------6---------------------------------|
|-4-------------------------------------------------|
|-2-------------------------------------------------|

|----------------------------------------------------|
|--5---4----------7-----------7-5--2-----------------|
|--------6--6-8-9-8-9-8-6-4--4-----2-----------------|
|----6--------------------6--------------------------|
|----------------------------------------------------|
|----------------------------------------------------|

|---------2-------------4-------4---5-4-------------|
|-------2---2-4-0-----4---7-5-7---------7-5-7-------|
|-------------4-1---5-------------5-----------------|
|-4---------------6---------------------------------|
|-4-------------------------------------------------|
|-2-------------------------------------------------|
(2:17)                  (2:20)
|---------------------------|
|-12------------------9-8-7-|
|-13-11-9-------------------|
|---------11-9--------------|
|---------------------------|
|---------------------------|
(2:22)
|---------------|
|---------------|
|---------10-10-|
|-10h11---10-10-|
|-10------------|
|---------------|
(2:28)
|-------------|
|-10-14-12-10-|
|-------------|
|-------------|
|-------------|
|-------------|
(2:35)
|-------------------|
|-12--12-14-12-11-9-|
|-------------------|
|-------------------|
|-------------------|
|-------------------|
(2:39)
|----------------|
|----------------|
|-12-10-11h13-11-|
|----------------|
|----------------|
|----------------|
(2:46)
|---------------|
|-4-6-8-12-10-9-|
|---------------|
|---------------|
|---------------|
|---------------|
(2:48).............and your latest trick
|------------|
|-----8-10-7-|
|-8-10-------|
|------------|
|------------|
|------------|

|-------------------------------------------------------|
|--4h5p4---------7------------7-5//2--------------------|
|--------6-6-8-9-8-9-8-6-4--4------2--------------------|
|-6----------------------6------------------------------|
|-------------------------------------------------------|
|-------------------------------------------------------|

|---------2-------------4-------4---5-4-------------|
|-------2---2-4-0-----4---7-5-7---------7-5-7-------|
|-------------4-1---5-------------5-----------------|
|-4---------------6---------------------------------|
|-4-------------------------------------------------|
|-2-------------------------------------------------|

|----------------------------------------------------|
|--5---4----------7-----------7-5--2-----------------|
|--------6--6-8-9-8-9-8-6-4--4-----2-----------------|
|----6--------------------6--------------------------|
|----------------------------------------------------|
|----------------------------------------------------|

|---------2-------------4-------4---5-4-------------|
|-------2---2-4-0-----4---7-5-7---------7-5-7-------|
|-------------4-1---5-------------5-----------------|
|-4---------------6---------------------------------|
|-4-------------------------------------------------|
|-2-------------------------------------------------|
(3:23)
|--------------------|
|--------------------|
|------10h11-11-10---|
|-10h12-----------12-|
|--------------------|
|--------------------|
(3:27)
|------------|
|---14-12-10-|
|-11---------|
|------------|
|------------|
|------------|
(3:46)
|---------------|
|-4-6-8-12-10-9-|
|---------------|
|---------------|
|---------------|
|---------------|
(3:49).............and your latest trick
|------------|
|-----8-10-7-|
|-8-10-------|
|------------|
|------------|
|------------|

|----------------------------------------------------|
|-----4-12--12--12p10--12-10--8p6-6-8-8--8p6-5h7p5-2-|
|---6----------------------------8-------------------|
|-6--------------------------------------------------|
|----------------------------------------------------|
|----------------------------------------------------|

|--------------------------------------------------------|
|-4-6-7-7--7p6-8b-7-8b-7----8-8-9-8-----------8-10-11-12-|
|-----------------------8-10----------8-10-11------------|
|--------------------------------------------------------|
|--------------------------------------------------------|
|--------------------------------------------------------|

|----------------------------------------------------------------------|
|-14p12-11-9-----------------------------------------------------------|
|------------14p12-11-9------------------------------------------------|
|-----------------------14p12-11-9-8-------9-11-12--12-11-9------------|
|--------------------------------------9-11----------------11-9--------|
|--------------------------------------------------------------12-10-8-|

|--------------------------------------------------------|
|-4-6-7-7--7p6-8b-7-8b-7----8-8-9-8-----------8-10-11-12-|
|-----------------------8-10----------8-10-11------------|
|--------------------------------------------------------|
|--------------------------------------------------------|
|--------------------------------------------------------|

THIS TAB OMITS TABLE GUITAR SOLO
its to hard to tab and im really really tired.

|-----------------------------------------------------|
|-----4-5---4---------7-------------7-5//2------------|
|---6---------6-6-8-9-8-9-8-6-4--4-------2------------|
|-6-------6-------------------6-----------------------|
|-----------------------------------------------------|
|-----------------------------------------------------|

|---------2-------------4-------4---5-4-------------|
|-------2---2-4-0-----4---7-5-7---------7-5-7-------|
|-------------4-1---5-------------5-----------------|
|-4---------------6---------------------------------|
|-4-------------------------------------------------|
|-2-------------------------------------------------|

|----------------------------------------------------|
|--5---4----------7-----------7-5--2-----------------|
|--------6--6-8-9-8-9-8-6-4--4-----2-----------------|
|----6--------------------6--------------------------|
|----------------------------------------------------|
|----------------------------------------------------|

|---------2-------------4-------4---5-4-------------|
|-------2---2-4-0-----4---7-5-7---------7-5-7--9//--|
|-------------4-1---5-------------5-----------------|
|-4---------------6---------------------------------|
|-4-------------------------------------------------|
|-2-------------------------------------------------|


the end
Tap to rate this tab
# A B C D E F G H I J K L M N O P Q R S T U V W X Y Z