Dire Straits - Wild West End tab

DIRE STRAITS - WILD WEST END
-----------------------------------------------------------------
Tabbed by:jamesmckee
Tuning:standard

Intro
e|-10----10--10--10-----10--10--10--10--10------|
B|-10h12-12--12--12p10--10--10--10--10--10------|
G|-11----11--11--11-----11--11--11--11--11------|
D|----------------------------------------------|
A|----------------------------------------------|
E|----------------------------------------------|

e|-3--3--2--2--0--------------------------------|
B|-5--5--3--3--3--------------------------------|
G|-4--4--4--4--4--------------------------------|
D|-------------5--------------------------------|
A|----------------------------------------------|
E|----------------------------------------------|

Lead Guitar
e|--10p9p7--------------------------------------|
B|-----------10~~-------------------------------|
G|----------------------------------------------|
D|----------------------------------------------|
A|----------------------------------------------|
E|----------------------------------------------|

Not the exact tab for the guitar but perfect to play on acoustic or electric

| /  slide up
| \  slide down
| h  hammer-on
| p  pull-off
| ~  vibrato
| +  harmonic
| x  Mute note
Tap to rate this tab
 
# A B C D E F G H I J K L M N O P Q R S T U V W X Y Z