Dire Straits - On Every Street tab

Couldn't find a decent tab for the outro/solo so i decided to make one.
email: tomer.simhony@gmail.com for queries

Enjoy

Standard tuning: EADGBe

E---------------------------|----------------------|------------------------|
B-----------5------------3--|----------------------|------------0---------1-|
G--2----------------4-------|-----2---0-----0---2--|---------2-------0------|
D-----3-0-------------0-----|-------0---------0----|-----3------------------|
A---------------------------|----------------------|--------------------2---|
E--1------------3-----------|--2----------0--------|--1------------0--------|

            
E---------------------------|
B-----------0------------0--|
G-----0------------0--------|
D---0----0------0-----0-----|
A---------------------------|
E---------------------------| x4


E---------------------------|----------------------|------------------------|
B-----------5------------3--|----------------------|------------0---------1-|
G--2----------------4-------|-----2---0-----0---2--|---------2-------0------|
D-----3-0-------------0-----|-------0---------0----|-----3------------------|
A---------------------------|----------------------|--------------------2---|
E--1------------3-----------|--2----------0--------|--1------------0--------|


            
E---------------------------|-------------------------|---------------------|
B-----------0------------0--|----------5-----------3--|---------------------|
G-----0------------0--------|--2--------------4-------|-----2---0-----0---0-|
D---0----0------0-----0-----|-----3-0-----------0-----|-------0---------2---|
A---------------------------|-------------------------|---------------------|
E---------------------------|--1----------3-----------|--2----------0-------|


E---------------------------|--------------------------|
B-----------0------------1--|-----------0--------1p0---|
G--2----2----------0--------|-----0------------0-------|
D-----3--------------2------|--0-----0------0----------|
A---------------------------|--------------------------|
E--1------------0-----------|--------------------------| x 4


p = pull off
Tap to rate this tab
 
# A B C D E F G H I J K L M N O P Q R S T U V W X Y Z