Song name
# A B C D E F G H I J K L M N O P Q R S T U V W X Y Z

Dire Straits - Expresso Love tab

-------------------------------------------------------------------------------
			     EXPRESSO LOVE - Dire Straits 
-------------------------------------------------------------------------------
Tabbed by: Palludan

Tuning: Standard 




e|---------------------------------------------------------------------------|
B|---------------------------------------------------------------------------|
G|---------------------------------------------------------------------------|
D|-7--repeat-----------------------------------------------------------------|
A|-5-------------------------------------------------------------------------|
E|---------------------------------------------------------------------------|


   Intro and Verse

e|---------------------------------------------------------------------------|
B|---------------------------------------------------------------------------|
G|---------------------------------------------------------------------------|
D|-7--2-3---5-3-2-----2-5--7-5-2---------------------------------------------|
A|-5--0-1---3-1-0--5--0-3--5-3-0---------------------------------------------|
E|-----------------3---------------------------------------------------------|

e|---------------------------------------------------------------------------|
B|---------------------------------------------------------------------------|
G|---------------------------------------------------------------------------|
D|-7--2-3---5-3-2--5--5-5--5-5-5---------------------------------------------|
A|-5--0-1---3-1-0--3--3-3--3-3-3---------------------------------------------|
E|---------------------------------------------------------------------------| 


   Chorus

e|---------------------------------------------------------------------------|
B|---------------------------------------------------------------------------|
G|---------------------------------------------------------------------------|
D|----------------5--3--3-3--3--3-3----|-------------------------------------|
A|-3--3-3--3--3-3-3--1--1-1--1--1-1-5--|-x2---7--7--7--8--8--8--5-5-5-5-5-5-5|
E|-1--1-1--1--1-1-------------------3--|------5--5--5--6--6--6--3-3-3-3-3-3-3|


   Bridge

e|---------------------------------------------------------------------------|
B|---------------------------------------------------------------------------|
G|---------------------------------------------------------------------------|
D|-----------------------5--5-5-----3--3-3-----5--5-5------------------------|
A|-7--7-7-----3--3-3-----3--3-3-x2--1--1-1-x2--3--3-3------------------------|
E|-5--5-5-x2--1--1-1-x2 -----------------------------------------------------|

Tap to rate this tab
 
# A B C D E F G H I J K L M N O P Q R S T U V W X Y Z