Song name
# A B C D E F G H I J K L M N O P Q R S T U V W X Y Z

Dire Straits - Communique tab

Dire straits - Communique
My first submit of any tab, so hope i did it right :)

X= slam strings

|-------------------------|----------------------------|
|-----2--X--2--2----X--2--|-----2--2--X--2--2----X--2--|
|-----2--X--4--2----X--2--|-----4--2--X--2--2----X--2--|
|--0-----X-----3>4--X-----|--0--------X--5--3>4--X-----|
|-------------------------|----------------------------|

|-------------------------|----------------------------|
|-----2--X--2--2----X--2--|-----2--2--X--2--2----X--2--|
|-----2--X--4--2----X--2--|-----4--2--X--2--2----X--2--|
|--0-----X-----3>4--X-----|--0--------X--5--3>4--X-----|
|-------------------------|----------------------------| [Repeat]
Tap to rate this tab
# A B C D E F G H I J K L M N O P Q R S T U V W X Y Z