Song name
# A B C D E F G H I J K L M N O P Q R S T U V W X Y Z

Dire Straits - Love Over Gold Live tab

e---------------------------------------------------------------------|
B------10-11-10---------------------10--------------------------------|
G----x----------10-12-------12p10h12-----9-10-9-----------------------|
D--x--------------------------------------------10-10h12~~~-----------|
A---------------------------------------------------------------------|
E---------------------------------------------------------------------|


e---------------------------------------------------------------------|
B--------10-11---11-10h11p10---8----8------10h11/13-------------------|
G------x-------------------------10-----------------------------------|
D----x----------------------------------------------------------------|
A---------------------------------------------------------------------|
E---------------------------------------------------------------------|


e--10--10-13p10---10---10--10----13p10----10-8------------------------|
B----10---------10---10------10---------10-----10-8-------------------|
G---------------------------------------------------------------------|
D---------------------------------------------------------------------|
A---------------------------------------------------------------------|
E---------------------------------------------------------------------|

e---------------------------------------------------------------------|
B--------10-9-8-------------------------------------------------------|
G----------------10--12-10--------------------------------------------|
D---------------------------12-10-12----------------------------------|
A---------------------------------------------------------------------|
E---------------------------------------------------------------------|

e--------------------------------------------------------------10-13--|
B--------10-11---11-10h11p10---8----8------8--8h10-11---------x-------|
G------x-------------------------10---------10---------------x--------|
D----x----------------------------------------------------------------|
A---------------------------------------------------------------------|
E---------------------------------------------------------------------|
Tap to rate this tab
# A B C D E F G H I J K L M N O P Q R S T U V W X Y Z