Song name
# A B C D E F G H I J K L M N O P Q R S T U V W X Y Z

Dire Straits - Brothers In Arms tab

Whole song.

--------------------------------------------------|
----------------------------------------4---------|
----------------------3h4/s6-4h3---------4--6-----|
---4/6-6-8h6~-6h8-6---------------6-4-6-----------|
---4/6--------------------------------------------|
--------------------------------------------------|

-----------------------------------------------------------|
-2/4--------------------------------------------4----------|
-----6-4-3---6-4-3----------4-3--4-3----------4---6---6/8~-|
-----------6-------6----4-6----------6---6-6---------------|
---------------------------------------6-------------------|
-----------------------------------------------------------|

      Am          F     G
These mist covered mountains
                 C   Csus4  C
Are home now for me
       Em         Am     Em
But my home is the low lands
                F       Gsus4  G
And always will be
                Am     Em
Someday you'll return to
                     F      Dm   Gsus4
Your valley and your farms
           G        C
And you'll no longer burn
      F         Gsus4   G
To brothers in arms

--------------------------------------------------------------------|
--------------------------------------------------------------------|
----------------------------------------------------------8---------|
-9p8-9/11-9-8-------------------(11)r9-8-11-9-8---------9---11------|
--------------11-9-11-11------------------------11-9-11-------------|
--------------------------------------------------------------------|

Am                     F       G
Through these fields of destruction
             C   Csus4 C
Baptisms of fire
      Em             Am      Em
I've watched all your suffering
        .             F       Gsus4   G
As the battles raged higher
                    Am        Em
And though they did hurt me so bad
                  F     Dm     Gsus4
In the fear and alarm
    G        C
You did not desert me
      F        Gsus4   G
My brothers in arms

--------------------------------------------------------------------|
--------------------------------------------------------------------|
----11b13-11-------------------------------------------------8------|
-13----------13--------------------8/9-9/11-9-8----8-------9---11---|
----------------14-13-11-11---------------------11---11-11----------|
--------------------------------------------------------------------|

Am        G             Am     C    G
There's so many different worlds
   C               F     G
So many different suns
    G               Am      G
And we have just one world
       C                 F      F
But we live in different ones

--------------------------------------------------------------------|
--------------------------------------------------------------------|
------8h11b13r11\9-9--------11b13-11-8----8h11-11b13-13-15-13-11----|
----9------------------------------------------------------------13-|
-11------------------------------------11---------------------------|
--------------------------------------------------------------------|


--------------------------------------------------------------------|
--------------------------------------------------------------------|
-8h11p8h11p8-11b13-11-8------------------------------8--------------|
------------------------9-8-------9-11--(13)r11-9--9---11-----------|
----------------------------9-11------------------------------------|
--------------------------------------------------------------------|

        Am           F      G
Now the sun's gone to hell
                       C   Csus4   C
And the moon's riding high
        Em         Am    Em
Let me bid your farewell
                F       Gsus4   G
Everyman has to die
                        Am      Em
But its written in the starlight
                       F    Dm   Gsus4
ANd every line on your palm
       G           C
We're fools to make war
       F           G
On our brothers in arms

--------------------------------------------------------------------|
--------------------------------------------------------------------|
-12b13-11-8---------------------------------------------------------|
------------9-8-----------------------------------------------------|
----------------11-9-11-11------------------------------------------|
--------------------------------------------------------------------|


--------------------------------------------------------------------|
----------------11--------------------------------------------------|
----13-11b12-13----13-11-13-11-13-11--------------------------------|
-13----------------------------------14p13-11-11-9------------------|
--------------------------------------------------------------------|
--------------------------------------------------------------------|


--------------------------------------------------------------------|
--------------------------------------------------------------------|
-11----11-11-11-11-11-11-11-11--------------------------------------|
-11b13-11-9--11-11-9--9--9--9---------------------------------------|
--------------------------------------------------------------------|
--------------------------------------------------------------------|
Tap to rate this tab
# A B C D E F G H I J K L M N O P Q R S T U V W X Y Z